Oops, an error
Loading. Please wait.

Wolke 4 Live tab

1,005 views 6 this week
no commentswrite comment
1 2 3 4 5
3 more votes to show rating
add to favorites
×
Save as Personal and add changes to this tab that will be seen only by you. Learn more ›
×
You can save this tab as Personal to edit and correct it or add notes. All changes will be seen only by you. Learn more »
launch autoscroll
font size
0
reset
how to read this tab
guitar tuner
edit
Autoscroll
slow
fast
+/-
esc
set tempo
stop
Capo on 4


Intro
...F dur...............C dur...............E mol...............A dur
e|--------------------------------------------------------------------------|
B|-------1------------------1--------------------0------------------1-------|
G|-----2---2--------------0---0----------------2---2--------------2---2-----|
D|-----------3------------------2--------------------2------------------2---| x2
A|-3------------------3-------------------2-------------------0-------------|
E|--------------------------------------------------------------------------|

Verse I
Die Akkorde werden weiterhin wie oben gezeigt gezupft

       F            C E         Am
Lass' uns die Wolke 4 bitte nie mehr verlassen
      F            C E     Am
Weil wir auf Wolke 7 viel zu viel verpassen
     F              C   E     Am
Ich war da schon einmal, bin zu tief gefall'n

--Ab hier werden die Akkorde nicht mehr gezupft, sondern normal gespielt--

F            C              E         Am
Lieber Wolke 4 mit Dir als unten wieder ganz allein'


Interlude:

e|-------------------------|
B|-------------------------|
G|-------------------------|
D|-7-6-4-6-4-2-1---7-6-4-6-| x2
A|---------------4---------|
E|-------------------------|



Verse 2:

F        C       E          Am
Ziemlich gut, wie wir das so gemeistert haben
F           C          E            Am
Wie wir die großen Tage unter kleinen Ding'n begraben
F     C            E           Am
Der Moment, der die Wirklichkeit maskiert
F                 C               E             Am
Es tut nur gut zu wissen, dass das wirklich funktioniert


Chorus:

       F            C E       Am
Lass' uns die Wolke 4 bitte nie mehr verlassen
      F            C E     Am
Weil wir auf Wolke 7 viel zu viel verpassen
     F              C   E     Am
Ich war da schon einmal, bin zu tief gefall'n
F            C            E           Am
Lieber Wolke 4 mit Dir als unten wieder ganz allein'

F C E Am x2


Verse 3:

F             C        E                 Am
Hab' nicht geseh'n, was da vielleicht noch kommt
       F              C    E               Am
Was am Ende dann mein Leben und mein kleines Herz zerbombt
F          C           E          Am
Denn der Moment ist das was ist und zeigt
        F             C           E                Am
Bis die Tage ziemlich dunkel sind, doch dein Lächeln bleibt..........Doch Dein Lächeln bleibt


Interlude:

e|-------------------------|
B|-------------------------|
G|-------------------------|
D|-7-6-4-6-4-2-1---7-6-4-6-| x2
A|---------------4---------|
E|-------------------------|



Chorus:

       F            C E       Am
Lass' uns die Wolke 4 bitte nie mehr verlassen
      F            C E     Am
Weil wir auf Wolke 7 viel zu viel verpassen
     F              C   E     Am
Ich war da schon einmal, bin zu tief gefall'n
F            C            E           Am
Lieber Wolke 4 mit Dir als unten wieder ganz allein'
F            C            E           Am
Lieber Wolke 4 mit Dir als unten wieder ganz allein'
F            C            E           Am
Lieber Wolke 4 mit Dir als unten wieder ganz allein'


Interlude:

e|-------------------------|
B|-------------------------|
G|-------------------------|
D|-7-6-4-6-4-2-1---7-6-4-6-| x2
A|---------------4---------|
E|-------------------------|

Outro:

F C E Am x6

            
            
Suggest correction
Creating personal tab
Creating personal tab
You can edit any tab online and save it as your Personal.

You can edit, replace or remove any tab part or add personal notes – all changes will be seen only by you.

Personal tabs can be accessed anytime from any device, even offline.
Learn more »
Give kudos to tab author, rate the tab!
1 2 3 4 5
comments
print report bad tab
guest
You may want to rate the tab now too:
select rating
Wanna post a correction for this tab? Suggest correction