Oops, an error
Loading. Please wait.

Markt Und Fluss tab

version 2
version 2

Whole song

5,780 views 12 this week
1 commentread comment
1 2 3 4 5
x 5
add to favorites
×
Save as Personal and add changes to this tab that will be seen only by you. Learn more ›
×
You can save this tab as Personal to edit and correct it or add notes. All changes will be seen only by you. Learn more »
launch autoscroll
font size
0
reset
how to read this tab
guitar tuner
edit
Autoscroll
slow
fast
+/-
esc
set tempo
stop
--------------------------------------------------------------------------------------------------
                                                          MARKT UND FLUSS by Philipp Poisel
--------------------------------------------------------------------------------------------------
Tabbed by: Sus´l
this tabs created by eye and ear - Enjoy! ;)

Tuning: Standard - Capo 3th fret - 3/4 Takt - Tempo 68


Intro

e|-------0h1-----|-------0h1-3---|-------0h1-----|-------0h1-----|-------3h1-0---|-------0h1-----|
B|-----3-----3---|-----3-------3-|-----3-----3---|-----3-----3---|-----3-------3-|-----3-----3---|
G|---2---------2-|---2-----------|---0---------0-|---2---------2-|---2-----------|---0---------0-|
D|-0-------------|-0-------------|---------------|-0-------------|-0-------------|---------------|
A|---------------|---------------|-3-------------|---------------|---------------|-3-------------|
E|---------------|---------------|---------------|---------------|---------------|---------------|
               3x                              4x              3x                        
      4x

1. Strophe
e|-------0h1-----|-------0h1-----|
B|-----3-----3---|-----3-----3---|
G|---2---------2-|---0---------0-| 4x
D|-0-------------|---------------|
A|---------------|-3-------------|
E|---------------|---------------|
               4x              4x

Morgens in den Nebel schauend,
mich fragend, wo das Leben bleibt,
Tee trinkend und Schwazbrot kauend,
zähl ich die Tage.
Großstadtschluchten ziehen mich ein,
es klappert hier und da.
Ich bilde mir zu leben ein,
im Rinnstein stirbt ein Schwein.

Refrain
e|-------0h1-----|-------0h1-----|
B|-----3-----3---|-----3-----3---|
G|---2---------2-|---0---------0-| 2x
D|-0-------------|---------------|
A|---------------|-3-------------|
E|---------------|---------------|
               4x              4x

Ich hab ja meinen Markt und meinen Fluss,
über den, ich jeden Morgen geh.

2. Strophe
e|-------0h1-----|-------0h1-----|
B|-----3-----3---|-----3-----3---|
G|---2---------2-|---0---------0-| 2x
D|-0-------------|---------------|
A|---------------|-3-------------|
E|---------------|---------------|
               4x              4x

In Bahnhofshallen groß und kalt,
träum ich von dem Sommerwald.
Ich geh auf die Straße raus,
wohin fahren die Züge?


after the 2. Refrain play accords:

  Dm (Fm)  Cadd9 (Ebadd9)
e|-1-|     |-x-|
B|-3-|     |-3-|
G|-2-|     |-0-|
D|-0-|     |-2-|
A|-x-|     |-3-|
E|-x-|     |-x-|

************************************

| /   slide up
| \   slide down
| h   hammer-on
| p   pull-off
| ~   vibrato
| +   harmonic
| x   Mute note
| b   Bend
| pb  Pre-bend
| br  Bend release
| pbr Pre-bend release
| brb Bend release bend

************************************

            
            
Suggest correction
Creating personal tab
Creating personal tab
You can edit any tab online and save it as your Personal.

You can edit, replace or remove any tab part or add personal notes – all changes will be seen only by you.

Personal tabs can be accessed anytime from any device, even offline.
Learn more »
comments
print report bad tab
1 comment total.
0 reply
Kadima 280 Sep 27, 2012 09:48 AM

good tab, I would just suggest it this way all the time except the chords part (which is great!):

|------0h1----|------0h1----|------0h1----|------0h1----|
|----3-------3|----3-------3|----3-------3|----3-------3|
|--2-------2--|--2-------2--|--2-------2--|--2-------0--|
|0------------|0------------|0------------|0------------|
|-------------|-------------|-------------|-------------|
|-------------|-------------|-------------|-------------|

|------0h1----|------0h1----|------0h1----|------0h1----|
|----3-------3|----3-------3|----3-------3|----3-------3|
|--0-------0--|--0-------0--|--0-------0--|--0-------0--|
|-------------|-------------|-------------|-------------|
|3------------|3------------|3------------|3------------|
|-------------|-------------|-------------|-------------|

thx!

guest
You may want to rate the tab now too:
select rating
Wanna post a correction for this tab? Suggest correction