Oops, an error
Loading. Please wait.

Gone Gone Gone tab

version 2
version 2

Whole song

  • It's the right way, half step down no capo, just as he plays it.
2,737 views 33 this week
no commentswrite comment
1 2 3 4 5
x 5
add to favorites
×
Save as Personal and add changes to this tab that will be seen only by you. Learn more ›
×
You can save this tab as Personal to edit and correct it or add notes. All changes will be seen only by you. Learn more »
launch autoscroll
font size
0
reset
how to read this tab
guitar tuner
edit
Autoscroll
slow
fast
+/-
esc
set tempo
stop
About this tab version
It's the right way, half step down no capo, just as he plays it. Was this info helpful? Yes No
The other tab is great but he actually plays it in flat (half step down), no capo.
Just finally sat down and did this for you guys! I feel its a better challenge.

   INTRO
                          
Eb |-----3-------|-----3-------|-----3-------|-----3--------|
Bb |-------3---3-|-------3---3-|-------3---3-|-------3---3--|
Gb |-0-0-----0---|-0-0-----0---|-0-0-----0---|-0-0-----0----|
Db |-------------|-------------|-------------|--------------|
Ab |-------------|-------------|-------------|--------------|
Eb |-------------|-------------|-------------|--------------|

   VERSE
                             
Eb |-----3-------|-----3-------|-----3-------|-----3--------|
Bb |-------3---3-|-------3---3-|-------3---3-|-------3---3--|
Gb |-0-0-----0---|-0-0-----0---|-0-0-----0---|-0-0-----0----|
Db |-------------|-------------|-------------|--------------|
Ab |-------------|-------------|-------------|--------------|
Eb |-------------|-------------|-------------|--------------|
  When life leaves you high and dry, I'll be at your door tonight

                        
Eb |-----3-------|-----3-------|-----3-------|-----3--------|
Bb |-------3---3-|-------3---3-|-------3---3-|-------3---3--|
Gb |---------0---|---------0---|---------0---|---------0----|
Db |-0-0---------|-0-0---------|-0-0---------|-0-0----------|
Ab |-------------|-------------|-------------|--------------|
Eb |-------------|-------------|-------------|--------------|
  If you need help,            if you need help

                            
Eb |-----3-------|-----3-------|-----3-------|-----3--------|
Bb |-------3---3-|-------3---3-|-------3---3-|-------3---3--|
Gb |---------0---|---------0---|---------0---|---------0----|
Db |-2-2---------|-2-2---------|-2-2---------|-2-2----------|
Ab |-------------|-------------|-------------|--------------|
Eb |-------------|-------------|-------------|--------------|
  I'll shut down the city lights, I'll lie, cheat, I'll beg and bribe

                             
Eb |-----3-------|-----3-------|-----3-------|-----3--------|
Bb |-------3---3-|-------3---3-|-------3---3-|-------3---3--|
Gb |---------0---|---------0---|---------0---|---------0----|
Db |-------------|-------------|-------------|--------------|
Ab |-3-3---------|-3-3---------|-3-3---------|-3-3----------|
Eb |-------------|-------------|-------------|--------------|
  To make you well,            to make you well

                             
Eb |-----3-------|-----3-------|-----3-------|-----3--------|
Bb |-------3---3-|-------3---3-|-------3---3-|-------3---3--|
Gb |-0-0-----0---|-0-0-----0---|-0-0-----0---|-0-0-----0----|
Db |-------------|-------------|-------------|--------------|
Ab |-------------|-------------|-------------|--------------|
Eb |-------------|-------------|-------------|--------------|
  When enemies are at your door, I'll carry you away from war

                         
Eb |-----3-------|-----3-------|-----3-------|-----3--------|
Bb |-------3---3-|-------3---3-|-------3---3-|-------3---3--|
Gb |---------0---|---------0---|---------0---|---------0----|
Db |-0-0---------|-0-0---------|-0-0---------|-0-0----------|
Ab |-------------|-------------|-------------|--------------|
Eb |-------------|-------------|-------------|--------------|
  If you need help,            if you need help


Eb |-----3-------|-----3-------|-----3-------|-----3--------|
Bb |-------3---3-|-------3---3-|-------3---3-|-------3---3--|
Gb |---------0---|---------0---|---------0---|---------0----|
Db |-2-2---------|-2-2---------|-2-2---------|-2-2----------|
Ab |-------------|-------------|-------------|--------------|
Eb |-------------|-------------|-------------|--------------|
  Your hope dangling by a string, I'll share in your suffering


Eb |-----3-------|-----3-------|-----3-------|-----3----------|
Bb |-------3---3-|-------3---3-|-------3---3-|-------3---3----|
Gb |---------0---|---------0---|---------0---|---------0------|
Db |-------------|-------------|-------------|----------------|
Ab |-3-3---------|-3-3---------|-3-3---------|-3-3---------3~-|
Eb |-------------|-------------|-------------|----------------|
  To make you well,            to make you well

    PRE CHOURUS

Eb |------------|------3-------|------3-------|------2-------|
Bb |------------|------3-------|------3-------|------3-------|
Gb |------------|------0-------|------0-------|------2-------|
Db |------------|------2-------|------0-------|------0-------|
Ab |------------|------3-------|------X-------|------x-------|
Eb |------------|------X-------|------3-------|------x-------|
    Give me..       reasons           to           believe.

Eb |------------|------3-------|------3-------|-----2-------X--|
Bb |------------|------3-------|------3-------|-----3-------X--|
Gb |------------|------0-------|------0-------|-----2-------X--|
Db |------------|------2-------|------0-------|-----0-------X--|
Ab |------------|------3-------|------X-------|-----X-------X--|
Eb |------------|------X-------|------3-------|-----X-------X--|
    That you would     do         the same for      me.....


CHORUS

      Cadd9     G        Em7     D
Eb |----3-------3--------3-------2------------|
Bb |----3-------3--------3-------3------------|
Gb |----0-------0--------0-------2------------|
Db |----2-------0--------2-------0------------|
Ab |----3-------X--------2-------X------------|
Eb |----X-------3--------X-------X------------|


                      Caad9   G         Em7   D
And I would do it for yoooouuuu, for yoooouuuu
      Cadd9              G
Baby, I'm not moving on
              Em7                D
I'll love you long after you're gone.
    Cadd9   G         Em7   D
For yoooouuuu, for yoooouuuu.
         Cadd9          G
You will never sleep alone
              Em7                D
I'll love you long after you're gone

Eb |----------------------------------------|
Bb |----------------------------------------|
Gb |----------------------------------------|
Db |----------------------------------------|
Ab |--------------------4-2-0---2-0---------| ##Any help to perfect this would be nice##
Eb |--------------------------3-----3~------|  I believe he transfers into the intro from the 3
                                               you can see i have one open gone in the next part.
(Just Vocals)
And long after you're gone, gone, gone.


    REPEAT INTRO

Eb |-----3-------|-----3-------|-----3-------|-----3--------|
Bb |-------3---3-|-------3---3-|-------3---3-|-------3---3--|
Gb |--0------0---|-0-0-----0---|-0-0-----0---|-0-0-----0----|
Db |-------------|-------------|-------------|--------------|
Ab |-------------|-------------|-------------|--------------|
Eb |-------------|-------------|-------------|--------------|

   VERSE2
                             
Eb |-----3-------|-----3-------|-----3-------|-----3--------|
Bb |-------3---3-|-------3---3-|-------3---3-|-------3---3--|
Gb |-0-0-----0---|-0-0-----0---|-0-0-----0---|-0-0-----0----|
Db |-------------|-------------|-------------|--------------|
Ab |-------------|-------------|-------------|--------------|
Eb |-------------|-------------|-------------|--------------|
   When you fall like a statue, I'm gon' be there to catch you

                        
Eb |-----3-------|-----3-------|-----3-------|-----3--------|
Bb |-------3---3-|-------3---3-|-------3---3-|-------3---3--|
Gb |---------0---|---------0---|---------0---|---------0----|
Db |-0-0---------|-0-0---------|-0-0---------|-0-0----------|
Ab |-------------|-------------|-------------|--------------|
Eb |-------------|-------------|-------------|--------------|
   Put you on your feet,        you on your feet

                            
Eb |-----3-------|-----3-------|-----3-------|-----3--------|
Bb |-------3---3-|-------3---3-|-------3---3-|-------3---3--|
Gb |---------0---|---------0---|---------0---|---------0----|
Db |-2-2---------|-2-2---------|-2-2---------|-2-2----------|
Ab |-------------|-------------|-------------|--------------|
Eb |-------------|-------------|-------------|--------------|
   And if your well is empty, not a thing will prevent me

                             
Eb |-----3-------|-----3-------|-----3-------|-----3--------|
Bb |-------3---3-|-------3---3-|-------3---3-|-------3---3--|
Gb |---------0---|---------0---|---------0---|---------0----|
Db |-------------|-------------|-------------|--------------|
Ab |-3-3---------|-3-3---------|-3-3---------|-3-3----------|
Eb |-------------|-------------|-------------|--------------|
   Tell me what you need,       what do you need

 PRE CHOURUS

Eb |------------|------3-------|------3-------|------3-------|
Bb |------------|------3-------|------3-------|------2-------|
Gb |------------|------0-------|------0-------|------3-------|
Db |------------|------2-------|------0-------|------0-------|
Ab |------------|------3-------|------X-------|------x-------|
Eb |------------|------X-------|------3-------|------x-------|
          I          surrender     honest............ly
    
Eb |------------|------3-------|------3-------|-----3-------X--|
Bb |------------|------3-------|------3-------|-----2-------X--|
Gb |------------|------0-------|------0-------|-----3-------X--|
Db |------------|------2-------|------0-------|-----0-------X--|
Ab |------------|------3-------|------X-------|-----X-------X--|
Eb |------------|------X-------|------3-------|-----X-------X--|
     You've always    done   the     same        for me

 CHORUS

                      Caad9   G         Em7   D
And I would do it for yoooouuuu, for yoooouuuu
      Cadd9              G
Baby, I'm not moving on
              Em7                D
I'll love you long after you're gone.
    Cadd9   G         Em7   D
For yoooouuuu, for yoooouuuu.
         Cadd9          G
You will never sleep alone
              Em7                D
I'll love you long after you're gone

Eb |----------------------------------------|
Bb |----------------------------------------|
Gb |----------------------------------------|
Db |----------------------------------------|
Ab |--------------------4-2-0---2-0---------| ##Any help to perfect this would be nice##
Eb |--------------------------3-----3-------|

(Just Vocals)
And long after you're gone, gone, gone.


BRIDGE
  
 Em7                 G                    Cadd9
    You're my back bone, you're my cornerstone
                                    (release the 2 on the Db string)    
    You're my crutch when my legs stop moving
 Em7                 G                       Cadd9
    You're my head start, you're my rugged heart
                                    (release the 2 on the Db string)
    You're the pulse that I've always needed
 Cadd9       G          Em7           D     
    Like a drum, baby, don't stop beating
 Cadd9       G          Em7           D
    Like a drum, baby, don't stop beating
 Cadd9       G          Em7           D
    Like a drum, baby, don't stop beating
 Cadd9       G          Em7           D (one strum to mute)
    Like a drum my heart never stops beating


CHORUS

    Cadd9   G         Em7   D
For yoooouuuu, for yoooouuuu
      Cadd9           G
Baby, I'm not moving on
              Em7                D
I'll love you long after you're gone.
    Cadd9   G         Em7   D
For yoooouuuu, for yoooouuuu.
         Cadd9           G
You will never sleep alone
              Em7                D
I'll love you long after you're gone
    Cadd9   G         Em7   D
For yoooouuuu, for yoooouuuu
      Cadd9           G
Baby, I'm not moving on
              Em7                D
I'll love you long after you're gone.
    Cadd9   G         Em7   D
For yoooouuuu, for yoooouuuu.
         Cadd9           G
You will never sleep alone
              Em7                D
I'll love you long after you're gone


~~~~~You can play this section on just do some mute strumming~~~~~~


Cadd9        G          Em7        D
    Like a drum, baby, don't stop beating
Cadd9        G          Em7        D
    Like a drum, baby, don't stop beating
Cadd9        G          Em7        D
    Like a drum, baby, don't stop beating
Cadd9        G          Em7        D
    Like a drum my heart never stops beating for you



OUTRO (You want to use your ring and middle finder on the high Eb and Bb for the outro)

Eb |-----3-------|-----3-------|-----3-------|---3-----3---------|
Bb |-------3---3-|-------3---3-|-------3---3-|-----3-----3-------|
Gb |-0-0-----0---|-0-0-----0---|-0-0-----0---|-4-----2-----------| X's 1
Db |-------------|-------------|-------------|-------------------|
Ab |-------------|-------------|-------------|-------------------|
Eb |-------------|-------------|-------------|-------------------|
                                  And  long after you're gone, gone,

Eb |-----3-------|-----3-------|-----3-------|---3-----3----3~---|
Bb |-------3---3-|-------3---3-|-------3---3-|-----3-----3--3~---|
Gb |-0-0-----0---|-0-0-----0---|-0-0-----0---|-4-----2------0~---|
Db |-------------|-------------|-------------|-------------------|
Ab |-------------|-------------|-------------|-------------------|
Eb |-------------|-------------|-------------|-------------------|
      gone.            I'll love you long after you're gone gone, gone.

            
            
Suggest correction
Creating personal tab
Creating personal tab
You can edit any tab online and save it as your Personal.

You can edit, replace or remove any tab part or add personal notes – all changes will be seen only by you.

Personal tabs can be accessed anytime from any device, even offline.
Learn more »
comments
print report bad tab
guest
You may want to rate the tab now too:
select rating
Wanna post a correction for this tab? Suggest correction