Oops, an error
Loading. Please wait.

Home Tab

version 2
version 2

Whole song

Interactive

Video

151,647 views 42 this week
2 commentsread comments
1 2 3 4 5
worth learning
x 10
add to favorites
launch autoscroll
font size
0
reset
how to read this tab
guitar tuner
Tab Pro tools
  • play this tab
  • loop segment
  • change instrument
  • show fretboard
  • metronome
×
Best way to learn
"Home"
Autoscroll
slow
fast
+/-
esc
set tempo
stop
Contributor
Difficulty
novice
-------------------------------------------------------------------------------
                             Home - Philip Philips
-------------------------------------------------------------------------------

Tabbed by: Caleb

Intro:

        C                                     Fsus2
e|------------------------------------------------|
B|-----1---------1----------1--------1------------|
G|-----0-0-------0-0--------0-0------0-0----------|  Keep repeating this picking pattern
D|---------2---------2----3-----3--3-----3--------|   through the verse.
A|---3----------3---------------------------------|
E|------------------------------------------------|


Although, this picking pattern might be more what he actually plays:

e|-------------------------------------|
B|-----1-------1-------1-------1-------|
G|-----0--0----0--0----0--0----0--0----|
D|---------2-------0-------3-------3---|
A|---3---3---3---3---3---3---3---3-----|
E|-------------------------------------|

(Thanks to yippie29 for the correction)


Verse 1

C       F                      C       F
Hold on to me as we go

C       F                                       C       F
As we roll down this unfamiliar road

                             Am - F                            C       F    C   F
And although this waaaaave is stringin' us along


           C                     Am
Just know you're not alone

                          F                G             C
Cause I'm gonna make this place your home


Verse 2

C       F                           C       F
Settle down, it'll all be clear

C                                            F                                C       F
Don't pay no mind to the demons, they fill you with fear.

 Am                                    F
Trouble it might drag you down

                C                                 G
If you get lost you can always be found

          C                     Am
Just know you're not alone

                          F                G             C
Cause I'm gonna make this place your home


Bridge

   Am             C
Ooooohhh-oooooh

   Am                G
Oooooohhh - oooooh

  Am             C        G   (repeat until you're done oh-ing)
Ooooohhh-oooooh


Repeat verse 2




Here's the little mumford riff:


               C                                     Am

     Just   know   you're   not     a  - lone....

e|----------------------------------------|
B|-------1---------------------1----------|
G|-------0---------------------2----------|
D|-------2---------------------2----------|
A|-------3-----2------0--------0----------|
E|------------------------3---------------|

                              F                      G                    C

  Cause I'm gonna make    this     place   your    home

e|---------------------------------------------------------------------------|
B|---------------1------------------------1----------------------------------|
G|---------------0------------------------0----------------------------------|
D|---------------3-----2-----0------------2----------------------------------|
A|---------------------------------2------3----------------------------------|
E|---------------------------------------------------------------------------|


Enjoy. Go impress some girls.
comments
print report bad tab
2 comments total.
0 reply
yippie29 wrote on February 6 2013, 08:12 pm

I actually found the picking pattern is more like this:


e|-------------------------------------|
B|-----1-------1-------1-------1-------|
G|-----0--0----0--0----0--0----0--0----|
D|---------2-------0-------3-------3---|
A|---3---3---3---3---3---3---3---3-----|
E|-------------------------------------|


That's all.

0 reply
calebrc wrote on September 5 2013, 11:07 am

Yeah, I think you're right. Thanks much!

I want to post or [tab]
guest
You may want to rate the tab now too:
select rating
Please do not post tabs as comments. Select "correction" instead!