Oops, an error
Loading. Please wait.

Home Tab

version 3
version 3

Whole song

Interactive

Video

11,022 views 12 this week
1 commentread comment
1 2 3 4 5
accurate
x 4
add to favorites
launch autoscroll
font size
0
reset
how to read this tab
guitar tuner
Tab Pro tools
  • play this tab
  • loop segment
  • change instrument
  • show fretboard
  • metronome
×
Best way to learn
"Home"
Autoscroll
slow
fast
+/-
esc
set tempo
stop
Contributor
-------------------------------------------------------------------------------
                                      HOME - Phillip Phillips
-------------------------------------------------------------------------------
Tabbed by: Royce Corrige

Tuning: Standard Tuning

_______________________________________________________________________
Notes:  This tab is not exactly how Phillip plays the song live.
        This is a simpler version, somehow incorporating the sound
        of both Phillip's guitar and the secondary guitar. (05/25/12)
_______________________________________________________________________



INTRO:

     C                                 FM7
e|-----------------------------------|-------------------------------| 
B|------1-------1--------1-------1---|----1-----1-------1-----1------|
G|------0---------0------0---------0-|----2-------2-----2-------2----| x 2
D|-----------------------------------|-3-----3-------3-----3---------|    
A|---3------3--------3-------3-------|-------------------------------|
E|-----------------------------------|-------------------------------|


VERSE:


     C                                 FM7
e|-----------------------------------|-------------------------------|
B|------1-------1--------1-------1---|----1-----1-------1-----1------|
G|------0---------0------0---------0-|----2-------2-----2-------2----| x 4
D|-----------------------------------|-3-----3-------3-----3---------|
A|---3------3--------3-------3-------|-------------------------------|
E|-----------------------------------|-------------------------------|
     Hold       on                           To   me   as   we   go
  As we roll down                            This unfamiliar road


     Am                                 FM7
e|-----------------------------------|-------------------------------|
B|------1-------1--------1-------1---|----1-----1-------1-----1------|
G|------2---------2------2---------2-|----2-------2-----2-------2----|
D|-----------------------------------|-3-----3-------3-----3---------|
A|---0------0--------0-------0-------|-------------------------------|
E|-----------------------------------|-------------------------------|
 Although this wave                          Is stringing us along
  

     C                                 FM7
e|-----------------------------------|-------------------------------|
B|------1-------1--------1-------1---|----1-----1-------1-----1------|
G|------0---------0------0---------0-|----2-------2-----2-------2----| 
D|-----------------------------------|-3-----3-------3-----3---------|
A|---3------3--------3-------3-------|-------------------------------|
E|-----------------------------------|-------------------------------|


     C     C/B   C/A     C/G           Am
e|-----------------------------------|-------------------------------|
B|------1------1-----1------1--------|----1-----1-------1-----1------|
G|------0------0-----0------0--------|----2-------2-----2-------2----| 
D|-----------------------------------|-------------------------------|
A|---3------2-----0------------------|-0-----0-------0------0--------|
E|-----------------------3-----------|-------------------------------|
Just know you're  not  alone


     Am               (FM7)                          C
e|-----------------------------------|-------------------------------|
B|------1-------1---------1------1---|----1-----1-------1-----1------|
G|------2---------2-------2------0---|----0-----0-------0-----0------|
D|---------------------3------2------|-0-----0-----------------------|
A|---0------0------------------------|---------------3-----3---------|
E|-----------------------------------|-------------------------------|
           I'm gonna make   this    place   your   home
  

     C                                 
e|-----------------------------------|
B|------1-------1--------1-------1---|
G|------0-------0--------0-------0---| x 2
D|-----------------------------------|
A|---3------3--------3-------3-------|
E|-----------------------------------|


     C                                 FM7
e|-----------------------------------|-------------------------------|
B|------1-------1--------1-------1---|----1------1------1------1-----|
G|------0-------0--------0-------0---|----2------2------2------2-----| x 4
D|-----------------------------------|-3------3------3------3--------|
A|---3------3--------3-------3-------|-------------------------------|
E|-----------------------------------|-------------------------------|
Settle down                                      It'll all be clear
  Don't pay no mind to the demons    They fill you with fear



     Am                                 FM7
e|-----------------------------------|-------------------------------|
B|------1-------1--------1-------1---|----1-----1-------1-----1------|
G|------2-------2--------2-------2---|----2-------2-----2-------2----|
D|-----------------------------------|-3-----3-------3-----3---------|
A|---0------0--------0-------0-------|-------------------------------|
E|-----------------------------------|-------------------------------|
 The  trouble  it  might  drag  you  down


     C                                 G
e|-----------------------------------|-------------------------------|
B|------1-------1--------1-------1---|----0------0------0------0-----|
G|------0-------0--------0-------0---|----0------0------0------0-----|
D|-----------------------------------|-------------------------------|
A|---3------3--------3-------3-------|-------------------------------|
E|-----------------------------------|-3------3------3------3--------|
  If you get lost you can always be found



     C     C/B   C/A     C/G           Am
e|-----------------------------------|-------------------------------|
B|------1------1-----1------1--------|----1-----1-------1-----1------|
G|------0------0-----0------0--------|----2-------2-----2-------2----| 
D|-----------------------------------|-------------------------------|
A|---3------2-----0------------------|-0-----0-------0------0--------|
E|-----------------------3-----------|-------------------------------|
Just know you're  not  alone


     Am                (FM7)                         C
e|-----------------------------------|-------------------------------|
B|------1-------1---------1------1---|----1-----1-------1-----1------|
G|------2---------2-------2------0---|----0-----0-------0-----0------|
D|---------------------3------2------|-0-----0-----------------------|
A|---0------0------------------------|---------------3-----3---------|
E|-----------------------------------|-------------------------------|
           I'm gonna make   this    place   your   home
  

     C                                 
e|-----------------------------------|
B|------1-------1--------1-------1---|
G|------0-------0--------0-------0---| x 2
D|-----------------------------------|
A|---3------3--------3-------3-------|
E|-----------------------------------|





***The Oooh Part :)***

     FM7                               C
e|-----------------------------------|-------------------------------|
B|------1-------1--------1-------1---|----1------1------1------1-----|
G|------2-------2--------2-------2---|----0------0------0------0-----|
D|---3------3--------3--------3------|-------------------------------|
A|-----------------------------------|-3------3------3------3--------|
E|-----------------------------------|-------------------------------|
    Ooooooooohhhh


     FM7                               G
e|-----------------------------------|-------------------------------|
B|------1-------1--------1-------1---|----0------0------0------0-----|
G|------2-------2--------2-------2---|----0------0------0------0-----|
D|---3------3--------3--------3------|-------------------------------|
A|-----------------------------------|-------------------------------|
E|-----------------------------------|-3-----3-------3------3--------|
    Ooooooooohhhh


     FM7                               C
e|-----------------------------------|-------------------------------|
B|------1-------1--------1-------1---|----1------1------1------1-----|
G|------2-------2--------2-------2---|----0------0------0------0-----|
D|---3------3--------3--------3------|-------------------------------|
A|-----------------------------------|-3------3------3------3--------|
E|-----------------------------------|-------------------------------|
    Aaooooooohhhh


   G
e|-------------------------------|
B|----0------0------0------0-----|
G|----0------0------0------0-----| x 2
D|-------------------------------|
A|-------------------------------|
E|-3-----3-------3------3--------|


**Repeat ooh part**



Then
Last ooh part:


     FM7                               C
e|-----------------------------------|-------------------------------|
B|------1------1---------1-----1-----|----1-----1-------1-----1------|
G|------2--------2-------2-------2---|----0-------0-----0-------0----|
D|---3-------3-------3-------3-------|-------------------------------|
A|-----------------------------------|-3------3------3------3--------|
E|-----------------------------------|-------------------------------|
    Ooooooooohhhh


     FM7                               G
e|-----------------------------------|-------------------------------|
B|------1------1---------1------1----|----0-----0-------0-----0------|
G|------2--------2-------2--------2--|----0-------0-----0-------0----|
D|---3-------3-------3--------3------|-------------------------------|
A|-----------------------------------|-------------------------------|
E|-----------------------------------|-3------3------3------3--------|
    Ooooooooohhhh


     FM7                               C
e|-----------------------------------|-------------------------------|
B|------1------1---------1-----1-----|----1-----1-------1-----1------|
G|------2--------2-------2-------2---|----0-------0-----0-------0----|
D|---3-------3-------3-------3-------|-------------------------------|
A|-----------------------------------|-3------3------3------3--------|
E|-----------------------------------|-------------------------------|
    Aaooooooohhhh


   G
e|-------------------------------|-------------------------------|
B|-----0-----0-------0-----0-----|----3-----3-------3-----3------|
G|-----0-------0-----0-------0---|----0-------0-----0-------0----| 
D|-------------------------------|-------------------------------|
A|-------------------------------|-------------------------------|
E|--3-----3-------3------3-------|-3------3------3------3--------|




     FM7                                        C
e|--------------------------|-----------------^-0-----------|
B|---------------1------1---|----1-----1------|-1-----------|
G|---------------2------0---|----0-----0------|-0-----------|
D|------------3------2------|-0-----0---------|-2-----------|
A|--------------------------|-----------------|-3-----------|
E|--------------------------|-------------------------------|
   I'm gonna make   this    place  your       home




________________________________________________________________
RATE RATE RATE :D

comments
print report bad tab
1 comment total.
0 reply
gtrgolf2002 wrote on February 2 2013, 09:39 pm

Great tab! The one suggestion that I see so far is to not change the fingering on the G and B strings, so instead of the A on the G string, leave as an open G.

E|-----------------------------------|-------------------------------|
B|------1-------1--------1-------1---|----1-----1-------1-----1------|
G|------0---------0------0---------0-|----0-------0-----0-------0----| x 4
D|-----------------------------------|-3-----3-------3-----3---------|
A|---3------3--------3-------3-------|-------------------------------|
E|-----------------------------------|-------------------------------|

I want to post or [tab]
guest
You may want to rate the tab now too:
select rating
Please do not post tabs as comments. Select "correction" instead!