Oops, an error
Loading. Please wait.

Man On The Moon Tab

7,292 views 21 this week
no commentswrite comment
1 2 3 4 5
x 4
add to favorites
launch autoscroll
font size
0
reset
how to read this tab
guitar tuner
×
Best way to learn
"Man On The Moon"
Autoscroll
slow
fast
+/-
esc
set tempo
stop
Author
Difficulty
Capo
  follow
intermediate
2nd fret
Tab by Júlio Mendonça da Costa

Standard Tunning

Capo on 2 (all notes related to the capo position)


Some comments:

 - Didn't care for the names of the chords, sorry.

 - The things below the "*" can be played in very different ways
   ("x" or "0" notes in other strings), so I sugest you take a look at
   some Phillip`s live videos to understand that. Although, it`s
   basically, and usually, played with the rhythym along the ups and downs
   of his hand, in a natural way. The way i tabbed feels right for me.

 - The structure of the song is: Main riff | verse | chorus | main riff |
   verse | chorus | interlude | chorus | final part

 - Hope you can also enjoy playing this very nice song.



Main Riff (Verses) :
                               *                              *
e|--------------------------------|-----------------------------|
B|-----------0------0------0------|-----------0------0------0---|
G|---------0------0------0-----0--|---------0------0------0---0-|
D|----0^2-----0^2----0^2-------0--|----0^2-----0^2----0^2-----0-|
A|-2------------------------------|-2---------------------------|
E|-0------------------------------|-3---------------------------|

                                   *  *********************
e|------------------------------|------2-------0------|
B|-----------0------0------0----|------0-0-----3--3---|
G|---------0------0------0----0-|---2----0---0-----0--|
D|----0^2-----0^2----0^2------0-|-0--0-----4--4--4-4--|
A|-4----------------------------|-2--------3----------|
E|-5----------------------------|---------------------|


Chorus:

First Part:

 ************
|-0--3--0--0-|
|-0--0--3--2-|
|-0--0--2--0-|
|-2--0--0--2-|
|-2--x--x--0-|
|-0--3--x--x-|


Second Part:

-0--------0-----0---------0--0--0----------|
-0--------0-----0---------0--0--0----------|
-0--4--7--9-----0--4--9--11/12/11----------|
-2--0--0--5-----2--0--0---7--7--7--8/7/5/0-|
-2--x--x--7-----2--x--x---9--9--9----------|
-0--3--7--8-----0--3--8--10-10-10----------|


Interlude:

|-0--0--0-|
|-3--0--3-|
|-0--6--0-|
|-4--5--0-|
|-5--4--3-|
|---------|


Final part:

3x
 ***********
|-----------|
|---0-0--3-0|
|---7-5--0-4|
|---0-0--4-5|
|-5/7----5-3|
|-----------|

1x
 ******************
|-----------------|
|-----------------|
|-0-0-0-x--0-0-0-x|
|-0-5-4-0--0-4-2-0|
|-x-x-x-7--x-x-x-5|
|-5-5-5-5--3-3-3-3|

3x
 ***********
|-----------|
|---0-0--3-0|
|---7-5--0-4|
|---0-0--4-5|
|-5/7----5-3|
|-----------|

 **********************************
|----------------------------------|
|--------------------------------8-|
|-0-0-0-x--0-0-0-x--0-0-0-x--0-7-7-|
|-0-5-4-0--0-4-2-0--0-5-4-0--0-0-9-|
|-x-x-x-7--x-x-x-5--x-x-x-7--x-x-x-|
|-5-5-5-5--3-3-3-3--5-5-5-5--8-8-8-|
Suggest correction
comments
print report bad tab
guest
You may want to rate the tab now too:
select rating
Wanna post a correction for this tab? Suggest correction