Oops, an error
Loading. Please wait.

So Easy Tab

version 1
version 1

Whole song

8,145 views 6 this week
4 commentsread comments
1 2 3 4 5
excellent!
x 8
add to favorites
launch autoscroll
font size
0
reset
how to read this tab
guitar tuner
Autoscroll
slow
fast
+/-
esc
set tempo
stop
Help us to improve Ultimate-Guitar.com Take our survey!
×
Author
Difficulty
novice
Intro x4:
e|-----------------------------------------------------------------------------|
B|----------12---12---------12---12----------10---10--------10---10------------|
G|--------0----0----------0----0-----------0----0---------0----0---------------|
D|-----------------------------------------------------------------------------|
A|----10-------------10----------------9--------------9------------------------|
E|-----------------------------------------------------------------------------|

e|-----------------------------------------(0)---(0)-----------(0)---(0)----------|
B|----------8----8---------8----8----------1----1------------1----1---------------|
G|--------0----0---------0----0----------0----0------------0----0-----------------|
D|--------------------------------------------------------------------------------|
A|----7---------------7----------------3--------------3---------------------------|
E|--------------------------------------------------------------------------------|

(Let C ring before chorus)

G               D
 You make it so, you make it so
Em              C
 You make it so easy
G               D
 This letting go is so beautiful
Em                    C
 Cause you make it so easy
           G     D
To fall so hard,
           Em    C
To fall so hard
Suggest correction
comments
print report bad tab
4 comments total. Showing first comments.
-1 reply
Treychoy 10 wrote on March 1 2013, 11:10 am

...After the first measure of the intro.
e|----------------------------------------------|
B|-------8--8------8--8------5--5-------5--5----|
G|-----0--0-------0--0------0--0-------0--0-----|
D|----------------------------------------------|
A|---7----------7----------3----------3---------|
E|----------------------------------------------|

This sounds a little more like the actual notes played(and prettier,) and is relevant to the other chords you play through the intro. It's still a C chord, it just sounds better than playing the Cmaj chord through the song, until you start playing actual chords of course.

0 reply
Mredwards88 71 wrote on January 24 2014, 04:02 pm

I like that just as much as picking the open high e string. Thanks for the input!

0 reply
mlobes 10 wrote on January 24 2014, 04:55 pm, edited at 04:56 pm

I'm e|-----------------------------------------------------------------------------|B|----------12---12---------12---12----------10---10--------10---10------------|G|--------0----0----------0----0-----------0----0---------0----0---------------|D|-----------------------------------------------------------------------------|A|----10----10---------10----10----------9----9----------9----9--------------------|E|-----------------------------------------------------------------------------|e|-----------------------------------------(0)---(0)-----------(0)---(0)----------|B|----------8----8---------8----8----------5----5------------5----5---------------|G|--------0----0---------0----0----------0----0------------0----0-----------------|D|--------------------------------------------------------------------------------|A|----7----7-----------7----7---------3----3----------3----3-----------------------|E|--------------------------------------------------------------------------------|

guest
You may want to rate the tab now too:
select rating
Please do not post tabs as comments. Select "correction" instead!