Oops, an error
Loading. Please wait.

So Easy chords

version 2
version 2

Whole song

460 views 3 this week
no commentswrite comment
1 2 3 4 5
2 more votes to show rating
add to favorites
×
Save as Personal and add changes to this tab that will be seen only by you. Learn more ›
×
You can save this tab as Personal to edit and correct it or add notes. All changes will be seen only by you. Learn more »
launch autoscroll
font size
0
reset
transpose
0
reset
display chords
guitar tuner
edit
Autoscroll
slow
fast
+/-
esc
set tempo
stop
Author
Strumming
There is no strumming pattern for this song yet. and get +5 IQ
No Capo
*=strum once and let ring


Intro Once
e|-----------------------------------------------------------------------|
B|---------12-----12------12----12------10----10-----10---10-------------|
G|--------0------0-------0-----0-------0-----0------0----0---------------|
D|-----------------------------------------------------------------------|
A|----10------10----10------10----9--------9----9------9-----------------|
E|-----------------------------------------------------------------------|

e|-----------------------------------------------------------------------|
B|---------8-----8------8-----8------1-----1-------1-----1---------------|
G|--------0-----0------0-----0------0-----0-------0-----0----------------|
D|-----------------------------------------------------------------------|
A|----7-------7----7-------7-----3-----3-----3-------3-------------------|
E|-----------------------------------------------------------------------|




(Intro)
Like a fall leaf from a tall tree landing on the grass
(intro)
Like the white sand turns the clock in any hour glass
(intro)                                           C*
You're the reason I believe in something I don't know

G               D
You make it so, you make it so, 
Em             C
you make it so easy
G                  D         
This letting go is so beautiful, 
Em                   C
cause you make it so easy to fall so hard, 
           G     D
To fall so hard
           Em    C
To fall so hard

G              D
Like the ocean pulls the tide in 
Em             C
just to hold me close
G                  D
Like the rain pour in a rainstorm 
Em                C
makes the flowers grow
G                 D
You're the reason I believe in 
Em                C*
something I don't know

G               D
You make it so, you make it so, 
Em              C
you make it so easy
G                D
This letting go is so beautiful, 
Em                   C
cause you make it so easy 
           
             G     D      Em     C    G
To fall so hard,  ohoh  ohohoh  ohoh
  D     Em    C       G*
Ohoh  ohoh  ohohoh

                D*
You make it so, you make it so, 
Em*                   C**** 
you make it so easy, nooo

G               D
You make it so, you make it so, 
Em             C
you make it so easy
G               D
This letting go is so beautiful, 
Em                   C
cause you make it so easy 
             G       D       Em     C    G
to fall so hard,   ohohoh  ohohoh  ohoh
 D     Em      C     G*
Ohoh  ohohoh  ohoh  

G                 D
You're the reason I believe in 
Em                 C*
something I don't know
Suggest correction
Creating personal tab
Creating personal tab
You can edit any tab online and save it as your Personal.

You can edit, replace or remove any tab part or add personal notes – all changes will be seen only by you.

Personal tabs can be accessed anytime from any device, even offline.
Learn more »
Give kudos to tab author, rate the tab!
1 2 3 4 5
comments
print report bad tab
guest
You may want to rate the tab now too:
select rating
Wanna post a correction for this tab? Suggest correction