Oops, an error
Loading. Please wait.

So Easy tab

version 2
version 2

Whole song

2,196 views 1 this week
no commentswrite comment
1 2 3 4 5
x 4
add to favorites
×
Save as Personal and add changes to this tab that will be seen only by you. Learn more ›
×
You can save this tab as Personal to edit and correct it or add notes. All changes will be seen only by you. Learn more »
launch autoscroll
font size
0
reset
how to read this tab
guitar tuner
edit
Autoscroll
slow
fast
+/-
esc
set tempo
stop
Author
Difficulty
I loved this song the first time I heard it.
I was looking at the other version of this tab and in this version I added a few notes. 
This isn't 100% correct but it sounds pretty close.

Chords: (I like to play the bar chords but you could always play the open-string versions.

    G   D   Em  C
e|--3---5---7---3--|
B|--3---7---8---5--|
G|--4---7---9---5--|
D|--5---7---9---5--|
A|--5---5---7---3--|
E|--3---5---7---3--|


Intro:

  G                                     D
e|----------------------------|----------------------------|
B|-----12-----12---12------12-|-----10-----10---10------10-|
G|-----------0----------------|-----------0----------------|
D|----12---12-----12-----12---|----8----8------8------8----|
A|-10------------------10-----|-9-------------------9------|
E|----------------------------|----------------------------|


  Em                          C
e|----------------------------|----------------------------|
B|-----8------8----8-------8--|-----1------1----1-------1--|
G|-----------0----------------|-----------0----------------|
D|----9----9------9------9----|----2----2------2------2----|
A|-7-------------------7------|-3-------------------3------|
E|----------------------------|----------------------------|


Verse 1:

  G                                     D
e|----------------------------|----------------------------|
B|-----12-----12---12------12-|-----10-----10---10------10-|
G|-----------0----------------|-----------0----------------|
D|----12---12-----12-----12---|----8----8------8------8----|
A|-10------------------10-----|-9-------------------9------|
E|----------------------------|----------------------------|

  Like a fall leaf from a tall tree...


  Em                          C
e|----------------------------|----------------------------|
B|-----8------8----8-------8--|-----1------1----1-------1--|
G|-----------0----------------|-----------0----------------|
D|----9----9------9------9----|----2----2------2------2----|
A|-7-------------------7------|-3-------------------3------|
E|----------------------------|----------------------------|
 
  Landing on the grass...


  G                                     D
e|----------------------------|----------------------------|
B|-----12-----12---12------12-|-----10-----10---10------10-|
G|-----------0----------------|-----------0----------------|
D|----12---12-----12-----12---|----8----8------8------8----|
A|-10------------------10-----|-9-------------------9------|
E|----------------------------|----------------------------|

  Like the white sand turns the clock hand...


  Em                          C
e|----------------------------|----------------------------|
B|-----8------8----8-------8--|-----1------1----1-------1--|
G|-----------0----------------|-----------0----------------|
D|----9----9------9------9----|----2----2------2------2----|
A|-7-------------------7------|-3-------------------3------|
E|----------------------------|----------------------------|
 
  In an hour glass...


Pre-Chorus:

  G                                     D
e|----------------------------|----------------------------|
B|-----12-----12---12------12-|-----7------7----7-------7--|
G|-----------0----------------|-----------0----------------|
D|----12---12-----12-----12---|----8----8------8------8----|
A|-10------------------10-----|-9-------------------9------|
E|----------------------------|----------------------------|

 You're the reason I believe in...


  Em                          C
e|----------------------------|-0--------------------------|
B|-----8------8----8-------8--|-1--------------------------|
G|-----------0----------------|-0--------------------------|
D|----9----9------9------9----|-2--------------------------|
A|-7-------------------7------|-3--------------------------|
E|----------------------------|-x--------------------------|
 
 Something I don't know...


Chorus:
(Strum)

G               D               Em              C
 You make it so, you make it so, You make it so easy
 
G               D               Em                     C
 This letting go is so beautiful, Cause you make it so easy,
 
               (Begin picking)
 To fall so hard, . . .  to fall so hard


  G                                     D
e|----------------------------|----------------------------|
B|-----12-----12---12------12-|-----10-----10---10------10-|
G|-----------0----------------|-----------0----------------|
D|----12---12-----12-----12---|----8----8------8------8----|
A|-10------------------10-----|-9-------------------9------|
E|----------------------------|----------------------------|


  Em                          C
e|----------------------------|----------------------------|
B|-----8------8----8-------8--|-----1------1----1-------1--|
G|-----------0----------------|-----------0----------------|
D|----9----9------9------9----|----2----2------2------2----|
A|-7-------------------7------|-3-------------------3------|
E|----------------------------|----------------------------|


Verse 2:

  G                                     D
e|----------------------------|----------------------------|
B|-----12-----12---12------12-|-----10-----10---10------10-|
G|-----------0----------------|-----------0----------------|
D|----12---12-----12-----12---|----8----8------8------8----|
A|-10------------------10-----|-9-------------------9------|
E|----------------------------|----------------------------|

  Like the ocean pulls the tide in...


  Em                          C
e|----------------------------|----------------------------|
B|-----8------8----8-------8--|-----1------1----1-------1--|
G|-----------0----------------|-----------0----------------|
D|----9----9------9------9----|----2----2------2------2----|
A|-7-------------------7------|-3-------------------3------|
E|----------------------------|----------------------------|
 
  Just to hold it close...


  G                                     D
e|----------------------------|----------------------------|
B|-----12-----12---12------12-|-----10-----10---10------10-|
G|-----------0----------------|-----------0----------------|
D|----12---12-----12-----12---|----8----8------8------8----|
A|-10------------------10-----|-9-------------------9------|
E|----------------------------|----------------------------|

  Like the rain pour in a rainstorm...


  Em                          C
e|----------------------------|----------------------------|
B|-----8------8----8-------8--|-----1------1----1-------1--|
G|-----------0----------------|-----------0----------------|
D|----9----9------9------9----|----2----2------2------2----|
A|-7-------------------7------|-3-------------------3------|
E|----------------------------|----------------------------|
 
  Makes the flowers grow...


Pre-Chorus:

  G                                     D
e|----------------------------|----------------------------|
B|-----12-----12---12------12-|-----7------7----7-------7--|
G|-----------0----------------|-----------0----------------|
D|----12---12-----12-----12---|----8----8------8------8----|
A|-10------------------10-----|-9-------------------9------|
E|----------------------------|----------------------------|

 You're the reason I believe in...


  Em                          C
e|----------------------------|-0--------------------------|
B|-----8------8----8-------8--|-1--------------------------|
G|-----------0----------------|-0--------------------------|
D|----9----9------9------9----|-2--------------------------|
A|-7-------------------7------|-3--------------------------|
E|----------------------------|-x--------------------------|
 
 Something I don't know...


Chorus:
(Strum)

G               D               Em              C
 You make it so, you make it so, You make it so easy
 
G               D               Em                     C
 This letting go is so beautiful, Cause you make it so easy,
 
               G                  D                Em            C
 To fall so hard, . . .   oh wah oh        oh wah oh      oh oh oh oh

               G                  D                Em            C
                          oh wah oh        oh wah oh      oh oh oh oh


(Strum once)                                 (Gradually pick up strumming)

G               D               Em              C
 You make it so, you make it so, You make it so easy no
 

Chorus:
(Strum)

G               D               Em              C
 You make it so, you make it so, You make it so easy
 
G               D               Em                     C
 This letting go is so beautiful, Cause you make it so easy,

              G                   D                Em            C
 To fall so hard, . . .   oh wah oh        oh wah oh      oh oh oh oh

              G                   D                Em            C
                          oh wah oh        oh wah oh      oh oh oh oh


  G                                     D
e|----------------------------|----------------------------|
B|-----12-----12---12------12-|-----7------7----7-------7--|
G|-----------0----------------|-----------0----------------|
D|----12---12-----12-----12---|----8----8------8------8----|
A|-10------------------10-----|-9-------------------9------|
E|----------------------------|----------------------------|

 You're the reason I believe in...


  Em                          C
e|----------------------------|-0--------------------------|
B|-----8------8----8-------8--|-1--------------------------|
G|-----------0----------------|-0--------------------------|
D|----9----9------9------9----|-2--------------------------|
A|-7-------------------7------|-3--------------------------|
E|----------------------------|-x--------------------------|
 
 Something I don't know...

            
            
Suggest correction
Creating personal tab
Creating personal tab
You can edit any tab online and save it as your Personal.

You can edit, replace or remove any tab part or add personal notes – all changes will be seen only by you.

Personal tabs can be accessed anytime from any device, even offline.
Learn more »
comments
print report bad tab
guest
You may want to rate the tab now too:
select rating
Wanna post a correction for this tab? Suggest correction