Oops, an error
Loading. Please wait.

Revelation Song tab

version 1
version 1

Whole song

50,332 views 30 this week
4 commentsread comments
1 2 3 4 5
x 26
add to favorites
×
Save as Personal and add changes to this tab that will be seen only by you. Learn more ›
×
You can save this tab as Personal to edit and correct it or add notes. All changes will be seen only by you. Learn more »
launch autoscroll
font size
0
reset
how to read this tab
guitar tuner
edit
Autoscroll
slow
fast
+/-
esc
set tempo
stop
Author
Difficulty
This is a really easy song to play, and it sounds great. 

[Intro/Verse:] 
Just use some delay and it sounds great :)

e|-9-----9-----9----9----9-------12------12------12-----12------12---------|
B|---7-----7-----7----7----7---7----12------12------12-----12------12---12-|
G|-----6-----6-----6----6----6---------9-------9-------9------9-------9----|
D|-------------------------------------------------------------------------|
A|-------------------------------------------------------------------------|
E|-------------------------------------------------------------------------|

e|-12------12------12-----12------12----------11-------11-------11---------|
B|----12------12------12-----12------12----12----12-------12-------12------|
G|-------11------11------11-----11------11----------11-------11-------11---|
D|-------------------------------------------------------------------------|
A|-------------------------------------------------------------------------|
E|-------------------------------------------------------------------------|

e|11------14--------|
B|---12------12-----|
G|------11------11--|
D|------------------|
A|------------------|
E|------------------|

For the rhythm guitar I usually tune down Half a step and play G Dm F C.
But you could play F# C#m E B if you don't want to tune down.
Its the same chords throughout the whole song.

            
            
Suggest correction
Creating personal tab
Creating personal tab
You can edit any tab online and save it as your Personal.

You can edit, replace or remove any tab part or add personal notes – all changes will be seen only by you.

Personal tabs can be accessed anytime from any device, even offline.
Learn more »
comments
print report bad tab
4 comments total. Showing first comments.
+4 reply
guitar4eternity 10 Sep 30, 2009 06:47 AM

Umm... Sorry, but most people play D Am C G for this song. Don't know where you got the idea of tuning a half step down, but the intro plays really well with the song.

0 reply
KMBroom 272 Jan 11, 2011 06:44 PM

@guitar4eternity I got the Idea to tune down just because that's always the tuning I use.. I listened to the song and found the chords that sounded like the background music. There are different versions of this song in different keys but the version I have these are the chords that are played, I'm sure of it :D

-1 reply
michael.w.brace 10 Sep 25, 2013 08:31 AM

You just are changing the key the PCD version is in a different key so tune down or capo. The tab is right for the key this version is in.

guest
You may want to rate the tab now too:
select rating
Wanna post a correction for this tab? Suggest correction