Oops, an error
Loading. Please wait.

Bathtub Gin Tab

version 1
version 1
10,834 views 6 this week
1 commentread comment
1 2 3 4 5
please rate
add to favorites
launch autoscroll
font size
0
reset
how to read this tab
guitar tuner
Autoscroll
slow
fast
+/-
esc
set tempo
stop
Help us to improve Ultimate-Guitar.com Take our survey!
×
e--7/8--------------------------------------------------------|
B-------7/8-10-11-10-11-10------------------------------------|  x2
G--------------------------8/9-10-12-10~-9-8-9-10-8-8/9-------|
D-------------------------------------------------------10-8--|
A-------------------------------------------------------------|
E-------------------------------------------------------------|

e-------------------------------------------------------------|
B----------10-13-11-10-11----10h11h13-13/15-13----------------|
G--8h10-10----------------10----------------------------------|
D----------------------------------------------13 13h15-------|
A-------------------------------------------------------------|
E-------------------------------------------------------------|
The chords in the intro are:
e--------------------------------------------|
B--------------------------------------------|
G----9-------7-------------------------------|
D----10------8-------------------------------|
A----10------8-------------------------------|
E-8--8----6--6-------------------------------|
Suggest correction
Give kudos to tab author, rate the tab!
1 2 3 4 5
comments
print report bad tab
1 comment total.
0 reply
ja3k3l 16 wrote on October 27 2013, 08:43 pm

im pretty sure theres a hammer on after the last 10 on the first verse

e--7/8--------------------------------------------------------|
B-------7/8-10-11-10-11-10------------------------------------| x2
G--------------------------8/9-10-12-10~-9-8-9-10-8-8/9-------|
D-------------------------------------------------------10---8--|
A---------------------------------------------------------10----|
E-------------------------------------------------------------|
but im only human i can be wrong

guest
You may want to rate the tab now too:
select rating
Please do not post tabs as comments. Select "correction" instead!