Oops, an error
Loading. Please wait.

Character Zero Bass Tab

2,629 views 3 this week
no commentswrite comment
1 2 3 4 5
x 4
add to favorites
launch autoscroll
font size
0
reset
guitar tuner
Autoscroll
slow
fast
+/-
esc
set tempo
stop
Help us to improve Ultimate-Guitar.com Take our survey!
×
Author
Phish
"Character Zero"

This song is very easy, but that does not mean it isn't good.

G:---------------------------7-------------------------|
D:-----------5---------5-------------------------------|
A:------7-5-----7-5-7-----7----------------------------|
E:3-0--------------------------------------------------|


G:---------------------------6-------------------------|
D:-----------5---------5-------------------------------|
A:------7-5-----7-5-7-----7----------------------------|
E:3-0--------------------------------------------------|
Suggest correction
comments
print report bad tab
guest
You may want to rate the tab now too:
select rating
Wanna post a correction for this tab? Suggest correction