Oops, an error
Loading. Please wait.

Divided Sky Bass Tab

1,998 views 1 this week
1 commentread comment
1 2 3 4 5
1 last vote to show rating
add to favorites
launch autoscroll
font size
0
reset
guitar tuner
Autoscroll
slow
fast
+/-
esc
set tempo
stop
Help us to improve Ultimate-Guitar.com Take our survey!
×
Author
-------------------------------------------------------------------------------
			     Divided Sky - Phish
-------------------------------------------------------------------------------
Artist - Phish
Song - Divided Sky
Album - The White Tab

Tabbed By : Pauly S

Opening:
G|-------------6-7-9-------------6-7-11-9---|
D|-7-----------------7-----6-7-9------------|
A|---0----0------------7-9------------------| (x2)
E|------------------------------------------|


G|-/16--19----------------------------------------------|
D|---------19-17-16-------------------------------------|
A|------------------19-17-16----------------------------|
E|---------------------------19-17-16---0-0-0-0-0-0-0-0-|


Repeat the first time four times, then this:
                                            __
Main part of 2nd solo:                         / 1    / 2
G|---------------9------7----------------------|----| |----|
D|-----7-8---10----7-------10-9-8-7------------|----| |----|
A|--8-------------------------------10-------7-|--8-| |--6-|
E|----------------------------------------8----|----| |----|

G|---------------0----------------|
D|-----------0-----3--------------|
A|--5-----1----3------5-----0-1-3-|
E|----5-----------------5-3-------0|

3rd solo (end jam):
G|----------------------------------------------------------------|
D|-0--0--0-------------------------0--0--0------------------------|
A|---------3--3-3--2--2--2--0-0-0----------3--3-3--2--2--2--0-0-0-|
E|----------------------------------------------------------------|

G|----------------------------------------------------------------|
D|-2--2--2--1-1-1--0--0--0---------2--2--2--1-1-1--0--0--0--------|
A|--------------------------4-4-4---------------------------4-4-4-|
E|----------------------------------------------------------------|

G|--------------------2--------------------------------------|
D|---------------2------------0--0--0------------------------|
A|-1-------0--------------------------3--3-3--2--2--2-0--0-0-|
E|-----------------------------------------------------------|

G|--------------------------------------------------------------------------|
D|--0-0-0-------------------1-1-1-------------------2-2-2-0-0-0-------------|
A|--------3-3-3-2-2-2-0-0-0-------4-4-4-3-3-3-1-1-1-------------4-4-4-3-3-3-|
E|--------------------------------------------------------------------------|

| /  slide up
| \  slide down
| h  hammer-on
| p  pull-off
| ~  vibrato
| +  harmonic
| x  Mute note
===============================================================================
Suggest correction
Give kudos to tab author, rate the tab!
1 2 3 4 5
comments
print report bad tab
1 comment total.
0 reply
peterella 50 Feb 24, 2008 03:35 PM

this is such a horrible tab sorry

guest
You may want to rate the tab now too:
select rating
Wanna post a correction for this tab? Suggest correction