Oops, an error
Loading. Please wait.

First Tube Tab

version 3
version 3

Whole song

10,025 views 18 this week
no commentswrite comment
1 2 3 4 5
excellent!
x 4
add to favorites
launch autoscroll
font size
0
reset
how to read this tab
guitar tuner
Tab Pro tools
  • play this tab
  • loop segment
  • change instrument
  • show fretboard
  • metronome
×
Best way to learn
"First Tube"
Autoscroll
slow
fast
+/-
esc
set tempo
stop
Contributor
|---------------------------------------------------------------------------|
|-----------------------------4/5--------5/6--5--5--------------------------|
|-----------5--4--4--7--5--5-------7--7-------------5--7--7--4--5--5--------|
|-----7--7------------------------------------------------------------7-----|
|--7---------------------------------------------------------------------7--|
|---------------------------------------------------------------------------|

 ----------------------------------------------------------------|
 -----------------------------5--------5/6--5--5-----------------|
 -----------5--4--4--7--5--5-----7--7-------------5--7--7--4-----|
 -----7--7----------------------------------------------------7--|
 --7-------------------------------------------------------------|
 ----------------------------------------------------------------| x2


|--------------------------------------------------------------------------|
|--------------------------------------------------------------------------|
|--------------------------------------------------------------------------|
|-----7--7-----7--7-----7--7-----7--7-----7--7-----7--7-----7--7-----7--7--|
|--7--------7--------7--------7--------7--------7--------7--------7--------|
|--------------------------------------------------------------------------| x2


|---------------------------------------------------------------------------|
|-----------------------------4/5--------5/6--5--5--------------------------|
|-----------5--4--4--7--5--5-------7--7-------------5--7--7--4--5--5--------|
|-----7--7------------------------------------------------------------7-----|
|--7---------------------------------------------------------------------7--|
|---------------------------------------------------------------------------|

 ----------------------------------------------------------------|
 -----------------------------5--------5/6--5--5-----------------|
 -----------5--4--4--7--5--5-----7--7-------------5--7--7--4-----|
 -----7--7----------------------------------------------------7--|
 --7-------------------------------------------------------------|
 ----------------------------------------------------------------| x2


|----------|
|----------|
|----------|
|----------|
|----------|
|---19\0---|  Let ring


|---------------------------------------------------------------------------|
|-----------------------------4/5--------5/6--5--5--------------------------|
|-----------5--4--4--7--5--5-------7--7-------------5--7--7--4--5--5--------|
|-----7--7------------------------------------------------------------7-----|
|--7---------------------------------------------------------------------7--|
|---------------------------------------------------------------------------|

 ------------------------------------------------------------------|
 -----------------------------4/5--------5/6--5--5-----------------|
 -----------5--4--4--7--5--5-------7--7-------------5--7--7--4-----|
 -----7--7------------------------------------------------------7--|
 --7---------------------------------------------------------------|
 ------------------------------------------------------------------| x2


   Am
|--0----0----0---|--x---x---|
|--1----1----1---|--x---x---|
|--2----2----2---|--11--12--|
|--2----2----2---|--12--14--|
|--0----0----0---|----------|
|----------------|----------| 3x

|--0----0----0---|
|--1----1----1---|
|--2----2----2---|
|--2----2----2---|
|--0----0----0---|
|----------------|


|--17--|
|--x---|
|--14--|
|--x---|
|--16--|
|------|  ...over and over and over...


|--0----0----0---|
|--1----1----1---|
|--2----2----2---|
|--2----2----2---|
|--0----0----0---|
|----------------|


|---------------------------------------------------------------------------|
|-----------------------------4/5--------5/6--5--5--------------------------|
|-----------5--4--4--7--5--5-------7--7-------------5--7--7--4--5--5--------|
|-----7--7------------------------------------------------------------7-----|
|--7---------------------------------------------------------------------7--|
|---------------------------------------------------------------------------|

 ----------------------------------------------------------------|
 -----------------------------5--------5/6--5--5-----------------|
 -----------5--4--4--7--5--5-----7--7-------------5--7--7--4-----|
 -----7--7----------------------------------------------------7--|
 --7-------------------------------------------------------------|
 ----------------------------------------------------------------|


 |--x----x--|
 |--2----3--|
 |--2----2--|
 |--2----4--|
 |--0----0--|
 |----------|  Repeat as necessary

 ...into jam...
comments
print report bad tab
I want to post or [tab]
guest
You may want to rate the tab now too:
select rating
Please do not post tabs as comments. Select "correction" instead!