Oops, an error
Loading. Please wait.

Fluffhead Tab

version 1
version 1

Intro

Whole song

1,361 views 6 this week
no commentswrite comment
1 2 3 4 5
please rate
add to favorites
launch autoscroll
font size
0
reset
how to read this tab
guitar tuner
Tab Pro tools
  • play this tab
  • loop segment
  • change instrument
  • show fretboard
  • metronome
Autoscroll
slow
fast
+/-
esc
set tempo
stop
Contributor
Difficulty
intermediate
Fluffhead – Phish – Tablature cob97lobo

This is the strict basis for the Fluff chords and picking patterns. Often times I don’t
keep quite so rigid (i.e. change the picking pattern a bit) but the way you play it is
up to you! With tabs I can’t convey note timing but the way I like to play it has the 
chords pretty much 8th notes and the picking pretty much 16th notes. Good luck!  :)

     -UhaulEverbody/BobWeird

P.S. Listen to the song for timing (duh).

“Notation Guide” *Notes mean they’re optional and sometimes I hit them purposefully.

E--0---------------0---------------0-----8--0--0--0-----10--0--0--0--|
B--1--------1------3----3----------6-----6*-6--6--8---------8--8--8--|
G--0------------0--0--------0---0—-0--------0--0--0---------0--0--0--|
D--2----0-----2----4------5---4----7--7*----7--7--9---9*----9--9--9--|
A--3------3--------5--5------------8--8-----8--8--10--10----10-10-10-|
E--0--3------------0---------------0--------0--0--0---------0--0--0--|

                                                       G  F

E--0--0--8--0--0--0--0---------------0-----------------1--1------------|
B--6--6--6*-6--6--6--1--------1------3----3------------0--1------------|
G--0--0-----0--0--0--0------------0--0--------0---0----0--2------------|
D--7--7-----7--7--7--2----0-----2----4------5---4------0--3------------|
A--8--8-----8--8--8--3------3--------5--5--------------2--0------------|
E--0--0-----0--0--0--0--3------------0-----------------3--0------------|




When you come to G and F, strum a few times (listen to the song for timing) then repeat
the whole thing a little faster. I like to end on a C. Oh, and when playing the F chord
I sometimes like to hit the first string third fret with my pinky.
comments
We did not receive enough feedback on this tab! Please rate:
print report bad tab
1 2 3 4 5
I want to post or [tab]
guest
You may want to rate the tab now too:
select rating
Please do not post tabs as comments. Select "correction" instead!