Oops, an error
Loading. Please wait.

Fluffhead Tab

version 1
version 1

Whole song

9,948 views 12 this week
5 commentsread comments
1 2 3 4 5
1 last vote to show rating
add to favorites
launch autoscroll
font size
0
reset
how to read this tab
guitar tuner
Autoscroll
slow
fast
+/-
esc
set tempo
stop
Help us to improve Ultimate-Guitar.com Take our survey!
×
#----------------------------------PLEASE NOTE---------------------------------#
#This file is the author's own work and represents their interpretation of the #
#song. You may only use this file for private study, scholarship, or research. #
#------------------------------------------------------------------------------##
From: fox@cs.panam.edu (Richard Fox)
Subject: Fluffhead by Phish (tab)

Here is Fluffhead.  This does not include Fluff's Travels, but if anyone
could figure it out, hey that would be great, please post it!

The following is the Intro theme and played between verses.  It is
based on a C chord played open, then slid up to the 3rd fret, then up to
the 8th fret and then down to the 6th fret.  In the 8th and 6th fret,
your pinky should be placed on the 10th and 8th fret respectively.  It's
pretty easy.

    C              D            G            F        C        D        G
----------------------------------10---------8------------------------3--3--|
---------------------------------8--8-------6-6-----------------------3--3--|
------------------0------------0-----0-----0---0--------------0-------4--4--|
---2-3/2--------4---5/4-------9-------9---7-----7----2-3/2---4--5/4---5--5--|
-3-------3-----5--------5---10-----------8----------3-----3-5------5--5--5--|
----------------------------------------------------------------------------|

(the / means pull-off)

The verse is essentially a G and an F (with G) played like this:

-3-------3---|
-3-------1---|
-4-------2---|
-5-------3---|
-------------|
-------------|
(repeated 6 times)

Where each chord is played for half a measure each.   Note that you can also
play the F like:

-1-
-1-
-0-
-3-
---
---

I'm not sure that the F is an F(with G) or just a plain F.  If you can
determine which version it is, let me know!!

The pattern of the song is
Intro (twice) - Verse 1 - Intro - Verse 2 - Intro - Verse 3 - Intro*

The last intro ends on an A chord and then into Fluff's Travels.
At the end of Fluff's Travels, the band comes in real powerful with the following
(this is where they sing "fluffhead, fluffy fluffy head...)

(End of Fluff's Travels)

G   C    Am    D
|| |''|  ||  |''|'| (strum pattern)


------------------------------------------------------------------------------
Richard Fox                             | fox@cs.panam.edu (prefered)
Department of Mathematics and Computer  | RKF1B3F@panam1.panam.edu
        Science                         | fox-r@cis.ohio-state.edu
The University of Texas Pan American    |
------------------------------------------------------------------------------

"Be a jerk, go to work, be a jerk, go to work"
    -- Brown Shoes Don't Make It, Frank Zappa
Suggest correction
Give kudos to tab author, rate the tab!
1 2 3 4 5
comments
print report bad tab
5 comments total. Showing first comments.
0 reply
the piper 1,413 Nov 06, 2006 08:26 PM

Dude you left out a buttload of notes. and p means pull-off. Just tellin' you people might get confused. anyway nice try though

0 reply
the piper 1,413 Nov 06, 2006 08:50 PM

Here's my rough approximation of the intro, this is the one from Junta by the way:

|-------------------------------|-------10------------------8-------|
|-1-------------3---------------|-8--------8---8------6-------6---6-|
|-0---------------------0-------|------------0------------------0---|
|-2----3p2--(2)---4---4---4---4-|------9------------------7---------|
|-3--------3--------5-------5---|---10-----------10-8---8-----------|

|---------------------------------|-----3--------|
|-------1---------3---------------|-----3--------|
|-------------------------0-------|-----4--------|
|---0h2---3p2---2---4---4---4---4-|-----5--------|
|-3-----------3-------5-------5---|-----5--------|
|---------------------------------|-3------------|

I hope that helps

0 reply
the piper 1,413 Nov 06, 2006 08:55 PM

|-------------------------------|-------10------------------8-------|
|-1-------------3---------------|-8--------8---8------6-------6---6-|
|-0---------------------0-------|------------0------------------0---|
|-2----3p2--(2)---4---4---4---4-|------9------------------7---------|
|-3--------3--------5-------5---|---10-----------10-8---8-----------|
|-------------------------------|-----------------------------------|

guest
You may want to rate the tab now too:
select rating
Wanna post a correction for this tab? Suggest correction