Oops, an error
Loading. Please wait.

Frankie Says Tab

817 views 1 this week
no commentswrite comment
1 2 3 4 5
accurate
x 1
add to favorites
launch autoscroll
font size
0
reset
how to read this tab
guitar tuner
Tab Pro tools
  • play this tab
  • loop segment
  • change instrument
  • show fretboard
  • metronome
Autoscroll
slow
fast
+/-
esc
set tempo
stop
Main intro rift, Trey changes it around sometimes, but it is generally like this:
e|-------------------------------------------------------------------------|
B|-----------9--------11--/12---11----9---9-------/12-11---9-----9---------|
G|-6-7-8-9------9-----------------------8---8-----------------7-----7------|
D|-------------------------------------------------------------------------|
A|-------------------------------------------------------------------------|
E|-------------------------------------------------------------------------|

e|-------------------------------------------------------------------------|
B|----------9--------------------------------------------------------------|
G|--6-7-8-9---6------------------------------------------------------------|
D|-------------------------------------------------------------------------|
A|-------------------------------------------------------------------------|
E|-------------------------------------------------------------------------|
Then where the 6 ends, that tranisitions into the six that starts the song, and the 
continues similarlly to that. The second time round, it is played like this
e|-------------------------------------------------------------------------|
B|-----------9--------11--/12---11----9---9-------/12-11---9-----9---------|
G|-6-7-8-9------9-----------------------8---8-----------------7-----7------|
D|-------------------------------------------------------------------------|
A|-------------------------------------------------------------------------|
E|-------------------------------------------------------------------------|

e|-------------------------------------------------------------------------|
B|---11--/12----11---------------------------------------------------------|
G|------------------6------------------------------------------------------|
D|-------------------------------------------------------------------------|
A|-------------------------------------------------------------------------|
E|-------------------------------------------------------------------------|
Use this second riff when needed in the song.
Hope you enjoy, its not to difficult of a song, and it is one of my Phish favorites. =D

| /  slide up
| \  slide down
| h  hammer-on
| p  pull-off
| ~  vibrato
| +  harmonic
| x  Mute note
============================================================================
comments
We did not receive enough feedback on this tab! Please rate:
print report bad tab
1 2 3 4 5
I want to post or [tab]
guest
You may want to rate the tab now too:
select rating
Please do not post tabs as comments. Select "correction" instead!