Oops, an error
Loading. Please wait.

Gumbo Tab

5,322 views 3 this week
no commentswrite comment
1 2 3 4 5
accurate
x 4
add to favorites
launch autoscroll
font size
0
reset
how to read this tab
guitar tuner
Autoscroll
slow
fast
+/-
esc
set tempo
stop
Help us to improve Ultimate-Guitar.com Take our survey!
×
#----------------------------------PLEASE NOTE--------------------------------#
#This file is the author's own work and represents their interpretation of the#
#song. You may only use this file for private study, scholarship, or research.#
#-----------------------------------------------------------------------------#

Date: Thu, 5 Mar 1998 17:33:21 -0500 (EST)
From: "shelanu@erols.com" 
Subject: p/phish/gumbo.crd

The other tab you have for the song Gumbo, not only is it wrong you can't do
anything with it unless you have a keyboardist playing and you in the
background!
I am sending you this becuase this is the keyboard and guitar on guitar.  No
need for a keyboardist!
please post it ASAP!!!!!!
there is no better tab transcription then this one, because this is the
difinative work that cannot be surpased by anyone!!!!
peace,Erez

Phish-Gumbo
tabbed by-Erez (E-mOnEy!)

This is mostly a transcription of what you should play on guitar, but it's
mostly keyboards.

I am only showing you the chords!  Not how many times you strum so print
this and listen to the "A Live One" and play along!

Intro-
-------------------------------------|
-7-----------------------------------|
-8-------6-----------------------8^--|
-8---8---6----------------6-6--8-----|
-6---8---4---6-6-6--9-9-9------------|
-----6-------------------------------|

The rest of the time play these 4 chords.

------4-------------|
-7----4----6----9---|
-8----5----6----8---|
-8----6----6----8---|
-6----6----4----6---|
------4-------------|

Every so often it ends on this chord 606770 instead of 068890.

Lyrics>
There's a mouse starin' out of the window
His car is trapped in the snow
He's planning a family vacation
But he just can't go
Around the next corner's a red bird
His feathers are trapped in a sling
He's passed by some gunslinging parrot
Who's jealous he ain't got no grin
There ain't no time to stash the gumbo
Or rattle around in a cage
The sacrificed child's made bubbles
And spittle is everywhere enraged
In a hot sand or in a my feet
They're blistered and caked with debris
Chez rolez is guarding the tote board
While Angry piddles with glee
There's a fool writing notes out on sandpaper
He's sending them off to himself
He gets them a couple days later
Who put them along his top shelf
If you get tired of shavings
And carve up a good hunk of wood
Remembering to check on the sausage
He's got cooking somewhere look good

I hope this helps.  Peace,E-mOnEy!

If you have any Questions E mail me @ shelanu@erols.com


#----------------------------------PLEASE NOTE---------------------------------#
#This file is the author's own work and represents their interpretation of the #
#song. You may only use this file for private study, scholarship, or research. #
#------------------------------------------------------------------------------##
#

Date: Tue, 2 Apr 1996 20:54:55 -0500 (EST)
From: Mike Weitman 
To: guitar@nevada.edu


 Gumbo-by Phish

 Intro-I'm not sure if the intro is single note, or pieces of chords, but
 I'll write it out as if it's chord pieces, and if you don't like how it
 sounds, then just play the bass note.

 E-----------------------------------------------------------------------|
 A-5--5--0--0--0--3--4--5--5--5--8--8--8--12--12--5--5-----------5-------|
 d-7--7--2--2--2--5--6--7--7--7--10-10-10-14--14--7-----7--7--5--7-------|
 G-7--7--2--2--2--5--6--7--7--7--10-10-10-14--14--7--------7--5--7-------|
 B---------------------------------------------------------6--5--6-------|
 E-----------------------------------------------------------------------|

 Verse/Chorus-These two are the same-the chords don't change for the rest
 of the song.

 Dm7  G7  C7  Dm7

 Chords are played like this:
 Dm7                  G7                      C7
 E--------------------3------------------------------------------|
 A-5------------------5-----------------------3------------------|
 D-7------------------3-----------------------5------------------|
 G-5------------------4-----------------------3------------------|
 B-6------------------3-----------------------5------------------|
 E-5------------------3-----------------------3------------------|
Suggest correction
comments
print report bad tab
guest
You may want to rate the tab now too:
select rating
Wanna post a correction for this tab? Suggest correction