Oops, an error
Loading. Please wait.

Sleep Tab

version 2
version 2

Whole song

by Phish
1,845 views 1 this week
no commentswrite comment
1 2 3 4 5
1 last vote to show rating
add to favorites
launch autoscroll
font size
0
reset
how to read this tab
guitar tuner
×
Best way to learn
"Sleep"
Autoscroll
slow
fast
+/-
esc
set tempo
stop
Sleep
from Farmhouse
Matt Burns
burnzy02@yahoo.com

This is my first tab.

Anyway, ive seen bitter sweet motel (awhile ago) and im guessing this is how the 
of the song goes:

(I can't describe...)

-----------------------|
-----3-----1-----0-----|    <==
-----0-----0-----0-----|    <== x3
-----------------------|    <==
-----------------------|
---3-----3-----3-------|

verses:

(I'm in my bed asleep...)
(I wake up with...)
(And all my efforts...)
(to reconstruct...)

---10---------8---------------------------------------------------------|
--------0--------0------0h1-------1--------3------1----1----1----0------|
----------0--------0--------0---0----------0------0----0----0-----------|
----9---------7---------------2-----------------------------------------|
-----------------------------------------------3----3----3--------------|
---------------------------------------3-------------------------3------|

Now for the bridge (or whatever you call it)
"theres certain things my mind must do...."
i have no idea. ill try to figure it out, and if you have any suggestions, please email me.

however, it picks back up into:

---10---------8---------------------------------------------------------|
--------0--------0-------0h1-------1-------3------1----1----1----0------|
----------0--------0---------0---0---------0------0----0----0-----------|
----9---------7----------------2----------------------------------------|
-----------------------------------------------3-----3----3-------------|
---------------------------------------3-------------------------3------|

when trey sings "Repairing is not one of them..."
                "So im awake though in my mind..."
                "The image that's so unrefined..."
                "Is calling to me from the deep..."

The end just repeats:

---------------------------------|
------3------1----1----1----0----|   <==
------0------0----0----0---------|   <== x3  here's also some funky
---------------------------------|   <==     solo stuff in in between (??)
-----------3----3----3-----------|
---3------------------------3----|

"Tempting me, to fall asleep..."

so, thats what i got.  email me with questions, critism, praise, or naked pictures of 
girlfriends...
Suggest correction
Give kudos to tab author, rate the tab!
1 2 3 4 5
comments
print report bad tab
guest
You may want to rate the tab now too:
select rating
Wanna post a correction for this tab? Suggest correction