Oops, an error
Loading. Please wait.

The Curtain With tab

by Phish
259 views 1 this week
no commentswrite comment
1 2 3 4 5
3 more votes to show rating
add to favorites
×
Save as Personal and add changes to this tab that will be seen only by you. Learn more ›
×
You can save this tab as Personal to edit and correct it or add notes. All changes will be seen only by you. Learn more »
launch autoscroll
font size
0
reset
how to read this tab
guitar tuner
edit
Autoscroll
slow
fast
+/-
esc
set tempo
stop
Author
The Curtain With
Phish

Thanks to Emil for starting this tab off, just made some edits and additions
Based largely on 6/10/11

[Intro]
    
E----------------------  
B---------------------- 
D---------6-------6----  
G---5-7-5---5-7-5------  
A----------------------   repeat ~10 times
E---------------------- 

  A               (x8)
E-0--0~--~--~-----12--
B-0--0~--5--0~----10--
D-6--6~--6--6~----11--
G-7--7~--~--------12-- 
A-0--0~--~------------
E-0--0~--~------------ 

[A, then repeat intro]

C slide to D

(Harmonics)
E---------------------------------
B----5-----7--------7--5-----7----
G--------7----5---7--------7---5--
D------7--------7--------7--------
A---------------------------------
E---------------------------------


E-10--8---7--5--3--2--0---------------
B-12--10--8--7--5--3--1---------------
G-0~~~~~~let-ring---------------------
D-0~~~~~~let-ring---------------------
A------------------------------------- x4
E-------------------------------------
play D after 1st and 3rd time
play G after 2nd and 4th time


 |:               :|  |:             :|  
E----------------------------------------
B--10---10--11--10------12---12-13-12----
G--10---10--10--10------12---12-12-12----
D--8----8---8---8-------10---10-10-10----
A----------------------------------------
E----------------------------------------

E|--10------|----------|----------|----------------------------------|--
B|--10------|--12------|--13------|------14------14------14------14--|--
G|--11------|--12------|--12------|--15------15------15------15------|--
D|--12~--~--|--12~--~--|--14~--~--|----------------------------------|--
A|----------|----------|----------|----------------------------------|--
E|----------|----------|----------|----------------------------------|--
Repeat from after harmonics

Then, build up on an A chord...

N.C.
  As he saw his life run away from him
  Thousands ran along,
  Chanting words from a Psalm...
(Play same open A chord from beginning of song)
  As he saw his life run away from him
  Thousands ran along,
  Chanting words from a song...

(riff 1)
E-------------------------
B-------------------------
G--6-b-7--r6p4-6-4---6----
D------------------5------
A----------------------7-- x2
E-------------------------

A                     G
Please me, have no regrets (riff 1) 
A                     G
Please me, have no regrets (riff 1)
A              G      A   
Came from the baby's mouth
                               Em
We follow the lines going south 

A                     G
Please me, have no regrets (riff 1)  
A                     G
Please me, have no regrets (riff 1)
A                 
Came from the.. came from the.. came from the..
G      D        A    N.C.                             Em
Baby's mouth......... we follow the lines going SOUTH!



E-(0)-----------------------------
B-(0)-----------------------------
G-(0)------0----0----0----0-------
D-(2)-----7----5----4----2--------
A-(2)----7----5----4----2---------  x3
E-(0)---0----0----0----0----------

Em  G  Am  C

E------------------
B--3--3-4-3--3-4---
G--3--3-3-3--3-3---
D--1--1-1-1--1-1---
A------------------ x2
E------------------

Em  G  Am  C

E------------------
B--5--5-6-5--5-6---
G--5--5-5-5--5-5---
D--3--3-3-3--3-3--- x2
A------------------
E------------------
                                         (repeat last lick 3 times)
E|--------------------|--------5-----5--|--7--5--4--5--4-----|--
B|--8--6--5--6--5-----|--8--6-----8-----|-----------------7--|--
G|-----------------7--|-----------------|--------------------|--
D|--------------------|-----------------|--------------------|--
A|--------------------|-----------------|--------------------|--
E|--------------------|-----------------|--------------------|--

E------------------
B--7--7-8-7--7-8---
G--7--7-7-7--7-7---
D--5--5-5-5--5-5---
A------------------  x2
E------------------

E------------------
B--5--5-6-5--5-6---
G--5--5-5-5--5-5---
D--3--3-3-3--3-3---
A------------------  x2
E------------------

E-(0)-----------------------------
B-(0)-----------------------------
G-(0)------0----0----0----0-------
D-(2)-----7----5----4----2--------
A-(2)----7----5----4----2---------  x2
E-(0)---0----0----0----0----------

E|---------------------------
B|--10--10--10--10---10--10--
G|--11--11--12--11---11--12--
D|--12--12--12--12---12--12--
A|-(0)-----------------------  x2
E|---------------------------

E|-----------------------------------------------------
B|-----------------------------------------------------
G|--0-----4-----6-----7-----9--------------------------
D|--2-----5--4--7--5--8--7--10--9-----9--10--11--11/12-
A|--2-----5--4--7--5--8--7--10--9-----9--10--11--11/12-
E|-----------------------------------------------------

E|---------------------------
B|--10--10--10--10---10--10--
G|--11--11--12--11---11--12--
D|--12--12--12--12---12--12--
A|-(0)-----------------------  x2
E|---------------------------

E|-----------------------------------------------------
B|-----------------------------------------------------
G|--0-----4-----6-----7-----9--------------------------
D|--2-----5--4--7--5--8--7--10--9-----9--10--11--11/12-
A|--2-----5--4--7--5--8--7--10--9-----9--10--11--11/12-
E|-----------------------------------------------------

E|---------------------------
B|--10--10--10--10---10--10--
G|--11--11--12--11---11--12--
D|--12--12--12--12---12--12--
A|-(0)-----------------------  x2
E|---------------------------

E|-----------------------------------------------------
B|-----------------------------------------------------
G|--0-----4-----6-----7-----9--------------------------
D|--2-----5--4--7--5--8--7--10--9-----9--10--11--11/12-
A|--2-----5--4--7--5--8--7--10--9-----9--10--11--11/12-
E|-----------------------------------------------------

E|---------------------------
B|--10--10--10--10---10--10--
G|--11--11--12--11---11--12--
D|--12--12--12--12---12--12--
A|-(0)-----------------------  x2
E|---------------------------

E|--5--5--6--5--5--6--|--7--7--8--7--7--8--|--
B|--6--6--6--6--6--6--|--8--8--8--8--8--8--|--
G|--5--5--5--5--5--5--|--7--7--7--7--7--7--|--
D|--------------------|--------------------|--
A|--------------------|--------------------|--
E|--------------------|--------------------|--

E|--------------------------|--------------------------|--
B|--10--10--11--10--10--11--|--12--12--13--12--12--13--|--
G|--10--10--10--10--10--10--|--12--12--12--12--12--12--|--
D|--10--10--10--10--10--10--|--12--12--12--12--12--12--|--
A|--------------------------|--------------------------|--
E|--------------------------|--------------------------|--

       strum this three chords                       last section x2
E|--10------|----------|----------|----------------------------------|--
B|--10------|--12------|--13------|------14------14------14------14--|--
G|--11------|--12------|--12------|--15------15------15------15------|--
D|--12~--~--|--12~--~--|--14~--~--|----------------------------------|--
A|----------|----------|----------|----------------------------------|--
E|----------|----------|----------|----------------------------------|--

E-10--8---7--5--3--2--0---------------
B-12--10--8--7--5--3--1---------------
G-0~~~~~~let-ring---------------------
D-0~~~~~~let-ring---------------------
A-------------------------------------
E-------------------------------------
Play D after 1st time, G after 2nd

Play again, weird decending stuff...end of Eb

[With]

E|----------------------|----------------------|----------|--------------------------------------|--
B|--11------------------|--11------------------|----------|--------------------------------------|--
G|------10/12--\10--\8--|------10/12--\10--\8--|------8~--|-----11--10--8-----10/11--\10--8--8~--|--
D|----------------------|----------------------|--9~------|--9-------------9---------------------|--
A|----------------------|----------------------|----------|--------------------------------------|--
E|----------------------|----------------------|----------|--------------------------------------|--
                                                                                           
E|----------------------|----------------------|----------|-------------------------------|--
B|--11------------------|--11------------------|----------|-------------------------------|--
G|------10/12--\10--\8--|------10/12--\10--\8--|------8~--|-----11--10--8-----11--10--8---|--
D|----------------------|----------------------|--9~------|--9-------------9--------------|--
A|----------------------|----------------------|----------|-------------------------------|--
E|----------------------|----------------------|----------|-------------------------------|--
                                                                                                (*optional)
E-------------------------------|---------------------------------------------------|-------------------------
B-------------------------------|---------------------------------------------------|-------------*---*---11~-
G-------10~-------11h13--11--10-|--------8~-----11--10--8-----11--10--8---------10~-|-----11h13--11--10---11~-
D-9/11~-------11--11-----11-----|-11\9~------9-------------9-------------9/11~------|-11--11-----11-------11~-
A-------------------------------|---------------------------------------------------|---------------------9-~-
E-------------------------------|---------------------------------------------------|-------------------------

E|----------------------------------------------|-----------------------------------------|--
B|--14-----------------14------------------12~--|------12p11----------11h12--11-----------|--
G|------13/15--13--11------15--13--11-----------|-------------13-----------------13--11~--|--
D|-------------------------------------13-------|--13-------------13----------------------|--
A|----------------------------------------------|-----------------------------------------|--
E|----------------------------------------------|-----------------------------------------|--

E|-----------------------------------------------------|---------------------------------|--
B|--14------------------14---------------------11/12~--|------12--11----------12p11------|--
G|------13/15--\13--11------13/15--13--11--------------|--------------13-------------13--|--
D|-----------------------------------------13----------|--13--------------13-------------|--
A|-----------------------------------------------------|---------------------------------|--
E|-----------------------------------------------------|---------------------------------|--

E|----------------------|---------------------------------|--
B|----------12/14--\12--|--12p11------12--11--------------|--
G|--11------------------|---------13----------13-----12~--|--
D|------14--------------|---------------------------------|--
A|----------------------|---------------------------------|--
E|----------------------|---------------------------------|--

Repeat from beginning of With

End on Eb, then strum back and forth between Eb and F

(Jam over Eb & F)

[Outro]

Eb F (a few times)

Eb

E|-------------------------------------
B|--11b13~~~--11-----------11----------
G|---------------14--12-------14--12---
D|-------------------------------------
A|-------------------------------------
E|-------------------------------------

D (swell up)




*Please rate and leave comments/corrections if needed*
Suggest correction
Creating personal tab
Creating personal tab
You can edit any tab online and save it as your Personal.

You can edit, replace or remove any tab part or add personal notes – all changes will be seen only by you.

Personal tabs can be accessed anytime from any device, even offline.
Learn more »
Give kudos to tab author, rate the tab!
1 2 3 4 5
comments
print report bad tab
guest
You may want to rate the tab now too:
select rating
Wanna post a correction for this tab? Suggest correction