Oops, an error
Loading. Please wait.

Tide Turns Chords

121 views 3 this week
no commentswrite comment
1 2 3 4 5
3 more votes to show rating
add to favorites
launch autoscroll
font size
0
reset
transpose
0
reset
simplify chords
display chords
guitar tuner
Autoscroll
slow
fast
+/-
esc
set tempo
stop
Help us to improve Ultimate-Guitar.com Take our survey!
×
Author
Difficulty
novice
Tide Turns
Phish
Big Boat

[Intro]
F F C  | C C C  x2

Horns part:
e|------------------|-
B|------------------|-
G|-------0----------|-
D|--0h2-----2p0-----|-
A|---------------3--|-
E|------------------|-

[Verse 1]
F F C
      When your lost in the darkness
F F C
      And the loneliness cuts so deep
F F C
      when every breath is suffering
F F C
      and you're longing for sleep

[Pre-Chorus]
F F G                        Am 
      You don't have to be alone
        F          Em      Dm
i still got a kind word to spare
G                         C
  I still haven't even listened
          A     A7
I've got time

[Chorus]
     D                      A    G
I'll wait with you 'til the tide turns
     D                      A    G
I'll wait with you 'til the tide turns
     D                      A    Bb
I'll wait with you 'til the tide turns
     C
Tide turns

[Verse 2]
F F C
      When the wolf is at your door
F F C
      And the mirror holds your nightmare
F F C
      There's no need to hide your tears
F F C
      If it's too much for you to bear

[Pre-Chorus]
F F G                        Am 
       You don't have to be alone
       F         Em        Dm
I will always be there for you
G                  C
   Together we can make it through
          A
We've got time
       A7
Yes we do

[Chorus]
     D                      A    G
I'll wait with you 'til the tide turns
     D                      A    G
I'll wait with you 'til the tide turns
          D                      A    Bb
I'm gonna wait with you 'til the tide turns
              C
'til the tide turns

[Solo]                            F F C                                                F   F   C
F F C 
E|-----------------------------------|------------------------------------------------------------|--
B|-13~--10---------------------------|-15b17r15--15b17r15p13---13--15b17-r15--13------------------|--
G|----------12-----------------------|----------------------14---------------------14--10--10--9--|--
D|--------------12p10-----(10)-12b14-|------------------------------------------------------------|--
A|---------------------12------------|------------------------------------------------------------|--
E|-----------------------------------|------------------------------------------------------------|--
                                          F   F  C
E|--10/12---15------------------------------------------------------------|--
B|-------------15--13---13------------------------------------------------|--
G|---------------------------12----12-------------------------------------|--
D|------------------------14----14----12----------------------------------|--
A|----------------------------------------15--12--15~--12\10--5p3--3------|--
E|--------------------------------------------------------------------5---|--

[Pre-Chorus]
    F  F  G                        Am
E|-------------------------------------------|-
B|-------------------------------------------|-
G|-----5--7----7p5------7p5-----7p5--7/9-----|-
D|--7----------------------------------------|-
A|-------------------------------------------|-
E|-------------------------------------------|-
              You don't have to be alone

       F         Em        Dm
I will always be here for you
G                  C
E|----------------------------|-
B|----------------------------|-
G|--7p5-----7b5----7/9--5-----|-
D|-------------------------5--|-
A|----------------------------|-
E|----------------------------|-
   Together we can make it through
          A            A7
We've got time, yes we do

[Chorus]
     D                      A    G
I'll wait with you 'til the tide turns, yes I will
     D                      A    G
I'll wait with you 'til the tide turns
                   D                      A    Bb
You know I'm gonna wait with you 'til the tide turns
              C
'til the tide turns........wait now

[Outro solo]
                   D           A      G                                D       A      G
E|-----------------------------------------|----------------------------------------------|--
B|-------------12--15---12-----17b19--15~--|--17b19r17--17b19r17b19r17p15------17b19--15--|--
G|--10/12--14--------------14--------------|-------------------------------16-------------|--
D|-----------------------------------------|----------------------------------------------|--
A|-----------------------------------------|----------------------------------------------|--
E|-----------------------------------------|----------------------------------------------|--

                                    D   A   G                         C             A  
E|------------------------------------------------------------|-------8-----8~------9--|--
B|--15\12------12-----------------------10--8--------8--------|------------------------|--
G|---------14---------------------------9---7--7--------7-----|--7/9-----9--------9----|--
D|-----------------14p12------12~--/9~--11--9-----9--------9--|------------------------|--
A|------------------------14----------------------------------|------------------------|--
E|------------------------------------------------------------|------------------------|--

                     D                  A       G              D           A      G
E|----9---9---9-----/22~--19-----------------------------------------------------------|--
B|---------------------------19--22b24--19---------------------22--19--22--22b24-------|--
G|--9---9---9-------------------------------21b23r21--19--19----------------------19~--|--
D|-------------------------------------------------------------------------------------|--
A|-------------------------------------------------------------------------------------|--
E|-------------------------------------------------------------------------------------|--
 You know you know I'm gonna wait with you                      I'm gonna wait with you

    D          A   G                                C                  A
E|--22------------------------------------|---------12-----------------------------|--
B|------23r22--19-------------------------|-------------13-------------10----------|--
G|-----------------19--21--21b23r21--19v--|--10/12----------12v------------9-------|--
D|----------------------------------------|----------------------9/11---------11v--|--
A|----------------------------------------|----------------------------------------|--
E|----------------------------------------|----------------------------------------|--
  Oh                    Nah  Nah

D
Oooohhh


***Please rate and leave comments/corrections if needed***
Suggest correction
Give kudos to tab author, rate the tab!
1 2 3 4 5
comments
print report bad tab
guest
You may want to rate the tab now too:
select rating
Wanna post a correction for this tab? Suggest correction