Oops, an error
Loading. Please wait.
We have an official 1901 tab made by UG professional guitarists. Check out the tab »
×
by Phoenix
68,764 views 36 this week
1 commentread comment
1 2 3 4 5
x 20
add to favorites
×
Save as Personal and add changes to this tab that will be seen only by you. Learn more ›
launch autoscroll
font size
0
reset
how to read this tab
guitar tuner
Autoscroll
slow
fast
+/-
esc
set tempo
stop
Author
Tuning: EADGBe

[Intro]
e|--------------------------------------------------------------------------|
B|--------------------------------------------------------------------------|
G|--------------------------------------------------------------------------|
D|-15--15--15--15--15--7--7--7--7--7-10-10-10-10-10--7--7--7--7--7----------|
A|-15--15--15--15--15--7--7--7--7--7-10-10-10-10-10--7--7--7--7--7----------|
E|-13--13--13--13--13--5--5--5--5--5--8--8--8--8--8--5--5--5--5--5----------|

e|--------------------------------------------------------------------------|
B|--------------------------------------------------------------------------|
G|--------------------------------------------------------------------------|
D|-15--15--15--15--15--7--7--7--7--7-10-10-10-10-10---10-10-10-10-10--------|
A|-15--15--15--15--15--7--7--7--7--7-10-10-10-10-10---10-10-10-10-10--------|
E|-13--13--13--13--13--5--5--5--5--5--8--8--8--8--8----8--8--8--8--8--------|

(Beat kicks In)
e|--------------------------------------------------------------------------|
B|--------------------------------------------------------------------------|
G|--------------------------------------------------------------------------|
D|-15--15--15--15--15--7--7--7--7--7-10-10-10-10-10--7--7--7--7--7----------|
A|-15--15--15--15--15--7--7--7--7--7-10-10-10-10-10--7--7--7--7--7----------|
E|-13--13--13--13--13--5--5--5--5--5--8--8--8--8--8--5--5--5--5--5----------|

e|----------------------------------------------------------------------------|
B|----------------------------------------------------------------------------|
G|----------------------------------------------------------------------------|
D|-15--15--15--15--15--7--7--7--7--7-10-10-10-10-10---10-10\7--7--7-----------|
A|-15--15--15--15--15--7--7--7--7--7-10-10-10-10-10---10-10\7--7--7-----------|
E|-13--13--13--13--13--5--5--5--5--5--8--8--8--8--8----8--8\5--5--5-----------|

[Verse]
e|--------------------------------------------------------------------------|
B|--------------------------------------------------------------------------|
G|--------------------------------------------------------------------------|
D|-15--15--15--15--15--7--7--7--7--7-10-10-10-10-10--7--7--7--7--7----------|
A|-15--15--15--15--15--7--7--7--7--7-10-10-10-10-10--7--7--7--7--7----------|
E|-13--13--13--13--13--5--5--5--5--5--8--8--8--8--8--5--5--5--5--5----------|

e|----------------------------------------------------------------------------|
B|----------------------------------------------------------------------------|
G|----------------------------------------------------------------------------|
D|-15--15--15--15--15--7--7--7--7--7-10-10-10-10-10---10-10\7--7--7-----------|
A|-15--15--15--15--15--7--7--7--7--7-10-10-10-10-10---10-10\7--7--7-----------|
E|-13--13--13--13--13--5--5--5--5--5--8--8--8--8--8----8--8\5--5--5-----------|

e|--------------------------------------------------------------------------|
B|--------------------------------------------------------------------------|
G|--------------------------------------------------------------------------|
D|-15--15--15--15--15--7--7--7--7--7-10-10-10-10-10--7--7--7--7--7----------|
A|-15--15--15--15--15--7--7--7--7--7-10-10-10-10-10--7--7--7--7--7----------|
E|-13--13--13--13--13--5--5--5--5--5--8--8--8--8--8--5--5--5--5--5----------|

e|----------------------------------------------------------------------------|
B|----------------------------------------------------------------------------|
G|----------------------------------------------------------------------------|
D|-15--15--15--15--15--7--7--7--7--7-10-10-10-10-10---10-10\7--7--7-----------|
A|-15--15--15--15--15--7--7--7--7--7-10-10-10-10-10---10-10\7--7--7-----------|
E|-13--13--13--13--13--5--5--5--5--5--8--8--8--8--8----8--8\5--5--5-----------|

[Chorus]
(play these chords)
e|--------------------------------------------------------------------------|
B|--------------------------------------------------------------------------|
G|--------------------------------------------------------------------------|
D|-5---7---8---5------------------------------------------------------------|
A|-5---7---8---5------------------------------------------------------------|
E|-3---5---6---3------------------------------------------------------------|

e|--------------------------------------------------------------------------|
B|--------------------------------------------------------------------------|
G|--------------------------------------------------------------------------|
D|-15--15--15--15--15--7--7--7--7--7-10-10-10-10-10--7--7--7--7--7----------|
A|-15--15--15--15--15--7--7--7--7--7-10-10-10-10-10--7--7--7--7--7----------|
E|-13--13--13--13--13--5--5--5--5--5--8--8--8--8--8--5--5--5--5--5----------|

e|----------------------------------------------------------------------------|
B|----------------------------------------------------------------------------|
G|----------------------------------------------------------------------------|
D|-15--15--15--15--15--7--7--7--7--7-10-10-10-10-10---10-10\7--7--7-----------|
A|-15--15--15--15--15--7--7--7--7--7-10-10-10-10-10---10-10\7--7--7-----------|
E|-13--13--13--13--13--5--5--5--5--5--8--8--8--8--8----8--8\5--5--5-----------|

(Then it goes back to Verse)
e|--------------------------------------------------------------------------|
B|--------------------------------------------------------------------------|
G|--------------------------------------------------------------------------|
D|-15--15--15--15--15--7--7--7--7--7-10-10-10-10-10--7--7--7--7--7----------|
A|-15--15--15--15--15--7--7--7--7--7-10-10-10-10-10--7--7--7--7--7----------|
E|-13--13--13--13--13--5--5--5--5--5--8--8--8--8--8--5--5--5--5--5----------|

e|----------------------------------------------------------------------------|
B|----------------------------------------------------------------------------|
G|----------------------------------------------------------------------------|
D|-15--15--15--15--15--7--7--7--7--7-10-10-10-10-10---10-10\7--7--7-----------|
A|-15--15--15--15--15--7--7--7--7--7-10-10-10-10-10---10-10\7--7--7-----------|
E|-13--13--13--13--13--5--5--5--5--5--8--8--8--8--8----8--8\5--5--5-----------|

e|--------------------------------------------------------------------------|
B|--------------------------------------------------------------------------|
G|--------------------------------------------------------------------------|
D|-15--15--15--15--15--7--7--7--7--7-10-10-10-10-10--7--7--7--7--7----------|
A|-15--15--15--15--15--7--7--7--7--7-10-10-10-10-10--7--7--7--7--7----------|
E|-13--13--13--13--13--5--5--5--5--5--8--8--8--8--8--5--5--5--5--5----------|

e|----------------------------------------------------------------------------|
B|----------------------------------------------------------------------------|
G|----------------------------------------------------------------------------|
D|-15--15--15--15--15--7--7--7--7--7-10-10-10-10-10---10-10\7--7--7-----------|
A|-15--15--15--15--15--7--7--7--7--7-10-10-10-10-10---10-10\7--7--7-----------|
E|-13--13--13--13--13--5--5--5--5--5--8--8--8--8--8----8--8\5--5--5-----------|

[Chorus]
(play these chords)
e|--------------------------------------------------------------------------|
B|--------------------------------------------------------------------------|
G|--------------------------------------------------------------------------|
D|-5---7---8---5------------------------------------------------------------|
A|-5---7---8---5------------------------------------------------------------|
E|-3---5---6---3------------------------------------------------------------|

e|--------------------------------------------------------------------------|
B|--------------------------------------------------------------------------|
G|--------------------------------------------------------------------------|
D|-15--15--15--15--15--7--7--7--7--7-10-10-10-10-10--7--7--7--7--7----------|
A|-15--15--15--15--15--7--7--7--7--7-10-10-10-10-10--7--7--7--7--7----------|
E|-13--13--13--13--13--5--5--5--5--5--8--8--8--8--8--5--5--5--5--5----------|

(and then it goes to the chords of the verse)
e|--------------------------------------------------------------------------|
B|--------------------------------------------------------------------------|
G|--------------------------------------------------------------------------|
D|-15--15--15--15--15--7--7--7--7--7-10-10-10-10-10--7--7--7--7--7----------|
A|-15--15--15--15--15--7--7--7--7--7-10-10-10-10-10--7--7--7--7--7----------|
E|-13--13--13--13--13--5--5--5--5--5--8--8--8--8--8--5--5--5--5--5----------|

e|----------------------------------------------------------------------------|
B|----------------------------------------------------------------------------|
G|----------------------------------------------------------------------------|
D|-15--15--15--15--15--7--7--7--7--7-10-10-10-10-10---10-10\7--7--7-----------|
A|-15--15--15--15--15--7--7--7--7--7-10-10-10-10-10---10-10\7--7--7-----------|
E|-13--13--13--13--13--5--5--5--5--5--8--8--8--8--8----8--8\5--5--5-----------|

e|--------------------------------------------------------------------------|
B|--------------------------------------------------------------------------|
G|--------------------------------------------------------------------------|
D|-15--15--15--15--15--7--7--7--7--7-10-10-10-10-10--7--7--7--7--7----------|
A|-15--15--15--15--15--7--7--7--7--7-10-10-10-10-10--7--7--7--7--7----------|
E|-13--13--13--13--13--5--5--5--5--5--8--8--8--8--8--5--5--5--5--5----------|

e|----------------------------------------------------------------------------|
B|----------------------------------------------------------------------------|
G|----------------------------------------------------------------------------|
D|-15--15--15--15--15--7--7--7--7--7-10-10-10-10-10---10-10\7--7--7-----------|
A|-15--15--15--15--15--7--7--7--7--7-10-10-10-10-10---10-10\7--7--7-----------|
E|-13--13--13--13--13--5--5--5--5--5--8--8--8--8--8----8--8\5--5--5-----------|
e|----------------------------------------------------------------------------|

(Then at the end you can hear this note being picked out in the backgound)
e|--------------------------------------------------------------------------|
B|--------------------------------------------------------------------------|
G|-5------------------------------------------------------------------------|
D|--------------------------------------------------------------------------|
A|--------------------------------------------------------------------------|
E|--------------------------------------------------------------------------|


************************************

| \  Slide down

************************************
Suggest correction
comments
print report bad tab
1 comment total.
0 reply
AjayDaIndieKid 10 Jan 01, 2010 03:42 PM

decent tab good job btw i rated 4

guest
You may want to rate the tab now too:
select rating
Wanna post a correction for this tab? Suggest correction