Oops, an error
Loading. Please wait.

1901 Tab

version 3
version 3

Whole song

Interactive

38,593 views 39 this week
no commentswrite comment
1 2 3 4 5
excellent!
x 9
add to favorites
launch autoscroll
font size
0
reset
how to read this tab
guitar tuner
Autoscroll
slow
fast
+/-
esc
set tempo
stop
Help us to improve Ultimate-Guitar.com Take our survey!
×
Author
Difficulty
novice
I'm pretty confident this is 100%. 

Intro:
Guitar 1
e-15-15-15-15-15-15-15-15-|15-17-17-17-17-17-17-17|
B-17-17-17-17-17-17-17-17-|17-17-17-17-17-17-17-17|
G-------------------------|-----------------------|
D-------------------------|-----------------------|
A-------------------------|-----------------------|
E-------------------------|-----------------------|

e-15-15-15-15-15-15-15-15-|15-15-15-15-15-17-15-15|
B-17-17-17-17-17-17-17-17-|17-17-17-17-17-17-17-17|
G-------------------------|-----------------------|
D-------------------------|-----------------------|
A-------------------------|-----------------------|
E-------------------------|-----------------------|

e-12-12-12-12-12-12-12-12-|12-15-15-15-15-15-15-15|
B-13-13-13-13-13-13-13-13-|13-13-13-13-13-13-13-13|
G-------------------------|-----------------------|
D-------------------------|-----------------------|
A-------------------------|-----------------------|
E-------------------------|-----------------------|


e-12-12-12-12-12-12-12-12-|12-12-12-12-12-12-12-12|
B-13-13-13-13-13-13-13-13-|13-13-13-13-13-13-13-13|
G-------------------------|-----------------------|
D-------------------------|-----------------------| X2
A-------------------------|-----------------------|
E-------------------------|-----------------------|


On The Second Time He Plays That The Second Guitarist Comes In

e-------------------|-------------------|
B-------------------|-------------------|
G---x-10-10-10-10-10|-------------------|
D---x-10-10-10-10-10|---x--7--7--7--7--7|
A---x--8--8--8--8--8|---x--7--7--7--7--7|
E-------------------|---x--5--5--5--5--5|

e-------------------|-------------------|
B-------------------|-------------------|
G-------------------|-------------------|
D---x-10-10-10-10-10|---x--7--7--7--7--7|
A---x-10-10-10-10-10|---x--7--7--7--7--7|
E---x--8--8--8--8--8|---x--5--5--5--5--5|

e-------------------|-------------------|
B-------------------|-------------------|
G---x-10-10-10-10-10|-------------------|
D---x-10-10-10-10-10|---x--7--7--7--7--7|
A---x--8--8--8--8--8|---x--7--7--7--7--7|
E-------------------|---x--5--5--5--5--5|

e-------------------|---------------------|
B-------------------|---------------------|
G-------------------|---------------------|
D---x-10-10-10-10-10|---x--10--10--7--7--7|
A---x-10-10-10-10-10|---x--10--10--7--7--7|
E---x--8--8--8--8--8|---x--8---8---5--5--5|


Verse:
Guitar 1 and 2

e-------------------|-------------------|
B-------------------|-------------------|
G---x-10-10-10-10-10|-------------------|
D---x-10-10-10-10-10|---x--7--7--7--7--7|
A---x--8--8--8--8--8|---x--7--7--7--7--7|
E-------------------|---x--5--5--5--5--5|

e-------------------|-------------------|
B-------------------|-------------------|
G-------------------|-------------------|
D---x-10-10-10-10-10|---x--7--7--7--7--7|
A---x-10-10-10-10-10|---x--7--7--7--7--7|
E---x--8--8--8--8--8|---x--5--5--5--5--5|

e-------------------|-------------------|
B-------------------|-------------------|
G---x-10-10-10-10-10|-------------------|
D---x-10-10-10-10-10|---x--7--7--7--7--7|
A---x--8--8--8--8--8|---x--7--7--7--7--7|
E-------------------|---x--5--5--5--5--5|

e-------------------|---------------------|
B-------------------|---------------------|
G-------------------|---------------------|
D---x-10-10-10-10-10|---x--10--10--7--7--7|
A---x-10-10-10-10-10|---x--10--10--7--7--7|
E---x--8--8--8--8--8|---x--8---8---5--5--5|


Verse Pt. 2

Guitar 1
e-15-15-15-15-15-15-15-15-|15-17-17-17-17-17-17-17|
B-17-17-17-17-17-17-17-17-|17-17-17-17-17-17-17-17|
G-------------------------|-----------------------|
D-------------------------|-----------------------|
A-------------------------|-----------------------|
E-------------------------|-----------------------|

e-15-15-15-15-15-15-15-15-|15-15-15-15-15-17-15-15|
B-17-17-17-17-17-17-17-17-|17-17-17-17-17-17-17-17|
G-------------------------|-----------------------|
D-------------------------|-----------------------|
A-------------------------|-----------------------|
E-------------------------|-----------------------|

e-12-12-12-12-12-12-12-12-|12-15-15-15-15-15-15-15|
B-13-13-13-13-13-13-13-13-|13-13-13-13-13-13-13-13|
G-------------------------|-----------------------|
D-------------------------|-----------------------|
A-------------------------|-----------------------|
E-------------------------|-----------------------|


e-12-12-12-12-12-12-12-12-|12-12-12-12-12-12-12-12|
B-13-13-13-13-13-13-13-13-|13-13-13-13-13-13-13-13|
G-------------------------|-----------------------|
D-------------------------|-----------------------|
A-------------------------|-----------------------|
E-------------------------|-----------------------|

Guitar 2
e-------------------|-------------------|
B-------------------|-------------------|
G---x-10-10-10-10-10|-------------------|
D---x-10-10-10-10-10|---x--7--7--7--7--7|
A---x--8--8--8--8--8|---x--7--7--7--7--7|
E-------------------|---x--5--5--5--5--5|

e-------------------|-------------------|
B-------------------|-------------------|
G-------------------|-------------------|
D---x-10-10-10-10-10|---x--7--7--7--7--7|
A---x-10-10-10-10-10|---x--7--7--7--7--7|
E---x--8--8--8--8--8|---x--5--5--5--5--5|

e-------------------|-------------------|
B-------------------|-------------------|
G---x-10-10-10-10-10|-------------------|
D---x-10-10-10-10-10|---x--7--7--7--7--7|
A---x--8--8--8--8--8|---x--7--7--7--7--7|
E-------------------|---x--5--5--5--5--5|

e-------------------|---------------------|
B-------------------|---------------------|
G-------------------|---------------------|
D---x-10-10-10-10-10|---x--10--10--7--7--7|
A---x-10-10-10-10-10|---x--10--10--7--7--7|
E---x--8--8--8--8--8|---x--8---8---5--5--5|

Chorus Pt. 1
Guitar 1 and 2
e---------------------|------------------|
B---------------------|------------------|
G-10-10-x--------10-10|x--------10-x----x|
D-10-10-x-10-10--10-10|x-10-10--10-x-10-x|
A-8--8--x-10-10---8--8|x-10-10---8-x-10-x|
E----------8--8-------|--8--8--------8--x|

e---------------------|------------------|
B---------------------|------------------|
G-10-10-x--------10-10|x--------10-x----x|
D-10-10-x-10-10--10-10|x-10-10--10-x-10-x|
A-8--8--x-10-10---8--8|x-10-10---8-x-10-x|
E----------8--8-------|--8--8--------8--x|

Chorus Pt. 2
Guitar 1
e-----------------|----------------|---------------------|---------------|
B-----------------|----------------|---------------------|---------------|
G-12--12-12-12--12|12-12-12--12--12|12-12--12-12-12-12-12|12--12-12-12-12|
D-----------------|----------------|---------------------|---------------|
A-----------------|----------------|---------------------|---------------|
E-----------------|----------------|---------------------|---------------|

e-------------------|
B-------------------|
G-12-12-12-12-------|
D--------------5-5-5|
A--------------5-5-5|
E--------------3-3-3|

Guitar 2

e---------------------|------------------|
B---------------------|------------------|
G-10-10-x--------10-10|x--------10-x----x|
D-10-10-x-10-10--10-10|x-10-10--10-x-10-x|
A-8--8--x-10-10---8--8|x-10-10---8-x-10-x|
E----------8--8-------|--8--8--------8--x|

e---------------------|-----------------|
B---------------------|-----------------|
G-10-10-x--------10-10|x--------12-12-12|
D-10-10-x-10-10--10-10|x-10-10--12-12-12|
A-8--8--x-10-10---8--8|x-10-10--10-10-10|
E----------8--8-------|--8--8-----------|

Chorus Pt. 3
Guitar 1 and 2
e---------------------|------------------|
B---------------------|------------------|
G-10-10-x--------10-10|x--------10-x----x|
D-10-10-x-10-10--10-10|x-10-10--10-x-10-x|
A-8--8--x-10-10---8--8|x-10-10---8-x-10-x|
E----------8--8-------|--8--8--------8--x|

e---------------------|------------------|
B---------------------|------------------|
G-10-10-x--------10-10|x--------10-x----x|
D-10-10-x-10-10--10-10|x-10-10--10-x-10-x|
A-8--8--x-10-10---8--8|x-10-10---8-x-10-x|
E----------8--8-------|--8--8--------8--x|

Chorus Pt. 4
Guitar 1
e---------------------------|------------------------|
B---------------------------|------------------------|
G----------12-------12-12---|12----12-12-------12----|
D----------12-------12-12---|12----12-12-------12----|
A-10-10-10-10-10-10-10-10-10|10-10-10-10-10-10-10-10-|
E---------------------------|------------------------|

e---------------------------|------------------------|
B---------------------------|------------------------|
G----------12----12----12---|12----12----12----12----|
D----------12----12----12---|x-----x-----x-----x-----|
A-10-10-10-10-10-10-10-10-10|10-10-10-10-10-10-10-10-|
E---------------------------|------------------------|

Guitar 2
e---------------------|------------------|
B---------------------|------------------|
G-10-10-x--------10-10|x--------10-x----x|
D-10-10-x-10-10--10-10|x-10-10--10-x-10-x|
A-8--8--x-10-10---8--8|x-10-10---8-x-10-x|
E----------8--8-------|--8--8--------8--x|

e---------------------|-----------------|
B---------------------|-----------------|
G-10-10-x--------10-10|x--------12-12-12|
D-10-10-x-10-10--10-10|x-10-10--12-12-12|
A-8--8--x-10-10---8--8|x-10-10--10-10-10|
E----------8--8-------|--8--8-----------|

Post Chorus
e-------------------|-------------------|
B-------------------|-------------------|
G---x-10-10-10-10-10|-------------------|
D---x-10-10-10-10-10|---x--7--7--7--7--7|
A---x--8--8--8--8--8|---x--7--7--7--7--7|
E-------------------|---x--5--5--5--5--5|

e-------------------|-------------------|
B-------------------|-------------------|
G-------------------|-------------------|
D---x-10-10-10-10-10|---x--7--7--7--7--7|
A---x-10-10-10-10-10|---x--7--7--7--7--7|
E---x--8--8--8--8--8|---x--5--5--5--5--5|

e-------------------|-------------------|
B-------------------|-------------------|
G---x-10-10-10-10-10|-------------------|
D---x-10-10-10-10-10|---x--7--7--7--7--7|
A---x--8--8--8--8--8|---x--7--7--7--7--7|
E-------------------|---x--5--5--5--5--5|

e-------------------|---------------------|
B-------------------|---------------------|
G-------------------|---------------------|
D---x-10-10-10-10-10|---x--10--10--7--7--7|
A---x-10-10-10-10-10|---x--10--10--7--7--7|
E---x--8--8--8--8--8|---x--8---8---5--5--5|


Verse:
Guitar 1 and 2

e-------------------|-------------------|
B-------------------|-------------------|
G---x-10-10-10-10-10|-------------------|
D---x-10-10-10-10-10|---x--7--7--7--7--7|
A---x--8--8--8--8--8|---x--7--7--7--7--7|
E-------------------|---x--5--5--5--5--5|

e-------------------|-------------------|
B-------------------|-------------------|
G-------------------|-------------------|
D---x-10-10-10-10-10|---x--7--7--7--7--7|
A---x-10-10-10-10-10|---x--7--7--7--7--7|
E---x--8--8--8--8--8|---x--5--5--5--5--5|

e-------------------|-------------------|
B-------------------|-------------------|
G---x-10-10-10-10-10|-------------------|
D---x-10-10-10-10-10|---x--7--7--7--7--7|
A---x--8--8--8--8--8|---x--7--7--7--7--7|
E-------------------|---x--5--5--5--5--5|

e-------------------|---------------------|
B-------------------|---------------------|
G-------------------|---------------------|
D---x-10-10-10-10-10|---x--10--10--7--7--7|
A---x-10-10-10-10-10|---x--10--10--7--7--7|
E---x--8--8--8--8--8|---x--8---8---5--5--5|


Verse Pt. 2

Guitar 1
e-15-15-15-15-15-15-15-15-|15-17-17-17-17-17-17-17|
B-17-17-17-17-17-17-17-17-|17-17-17-17-17-17-17-17|
G-------------------------|-----------------------|
D-------------------------|-----------------------|
A-------------------------|-----------------------|
E-------------------------|-----------------------|

e-15-15-15-15-15-15-15-15-|15-15-15-15-15-17-15-15|
B-17-17-17-17-17-17-17-17-|17-17-17-17-17-17-17-17|
G-------------------------|-----------------------|
D-------------------------|-----------------------|
A-------------------------|-----------------------|
E-------------------------|-----------------------|

e-12-12-12-12-12-12-12-12-|12-15-15-15-15-15-15-15|
B-13-13-13-13-13-13-13-13-|13-13-13-13-13-13-13-13|
G-------------------------|-----------------------|
D-------------------------|-----------------------|
A-------------------------|-----------------------|
E-------------------------|-----------------------|


e-12-12-12-12-12-12-12-12-|12-12-12-12-12-12-12-12|
B-13-13-13-13-13-13-13-13-|13-13-13-13-13-13-13-13|
G-------------------------|-----------------------|
D-------------------------|-----------------------|
A-------------------------|-----------------------|
E-------------------------|-----------------------|

Guitar 2
e-------------------|-------------------|
B-------------------|-------------------|
G---x-10-10-10-10-10|-------------------|
D---x-10-10-10-10-10|---x--7--7--7--7--7|
A---x--8--8--8--8--8|---x--7--7--7--7--7|
E-------------------|---x--5--5--5--5--5|

e-------------------|-------------------|
B-------------------|-------------------|
G-------------------|-------------------|
D---x-10-10-10-10-10|---x--7--7--7--7--7|
A---x-10-10-10-10-10|---x--7--7--7--7--7|
E---x--8--8--8--8--8|---x--5--5--5--5--5|

e-------------------|-------------------|
B-------------------|-------------------|
G---x-10-10-10-10-10|-------------------|
D---x-10-10-10-10-10|---x--7--7--7--7--7|
A---x--8--8--8--8--8|---x--7--7--7--7--7|
E-------------------|---x--5--5--5--5--5|

e-------------------|---------------------|
B-------------------|---------------------|
G-------------------|---------------------|
D---x-10-10-10-10-10|---x--10--10--7--7--7|
A---x-10-10-10-10-10|---x--10--10--7--7--7|
E---x--8--8--8--8--8|---x--8---8---5--5--5|

Chorus Pt. 1
Guitar 1 and 2
e---------------------|------------------|
B---------------------|------------------|
G-10-10-x--------10-10|x--------10-x----x|
D-10-10-x-10-10--10-10|x-10-10--10-x-10-x|
A-8--8--x-10-10---8--8|x-10-10---8-x-10-x|
E----------8--8-------|--8--8--------8--x|

e---------------------|------------------|
B---------------------|------------------|
G-10-10-x--------10-10|x--------10-x----x|
D-10-10-x-10-10--10-10|x-10-10--10-x-10-x|
A-8--8--x-10-10---8--8|x-10-10---8-x-10-x|
E----------8--8-------|--8--8--------8--x|

Chorus Pt. 2
Guitar 1
e-----------------|----------------|---------------------|---------------|
B-----------------|----------------|---------------------|---------------|
G-12--12-12-12--12|12-12-12--12--12|12-12--12-12-12-12-12|12--12-12-12-12|
D-----------------|----------------|---------------------|---------------|
A-----------------|----------------|---------------------|---------------|
E-----------------|----------------|---------------------|---------------|

e-------------------|
B-------------------|
G-12-12-12-12-------|
D--------------5-5-5|
A--------------5-5-5|
E--------------3-3-3|

Guitar 2

e---------------------|------------------|
B---------------------|------------------|
G-10-10-x--------10-10|x--------10-x----x|
D-10-10-x-10-10--10-10|x-10-10--10-x-10-x|
A-8--8--x-10-10---8--8|x-10-10---8-x-10-x|
E----------8--8-------|--8--8--------8--x|

e---------------------|-----------------|
B---------------------|-----------------|
G-10-10-x--------10-10|x--------12-12-12|
D-10-10-x-10-10--10-10|x-10-10--12-12-12|
A-8--8--x-10-10---8--8|x-10-10--10-10-10|
E----------8--8-------|--8--8-----------|

Chorus Pt. 3
Guitar 1 and 2
e---------------------|------------------|
B---------------------|------------------|
G-10-10-x--------10-10|x--------10-x----x|
D-10-10-x-10-10--10-10|x-10-10--10-x-10-x|
A-8--8--x-10-10---8--8|x-10-10---8-x-10-x|
E----------8--8-------|--8--8--------8--x|

e---------------------|------------------|
B---------------------|------------------|
G-10-10-x--------10-10|x--------10-x----x|
D-10-10-x-10-10--10-10|x-10-10--10-x-10-x|
A-8--8--x-10-10---8--8|x-10-10---8-x-10-x|
E----------8--8-------|--8--8--------8--x|

Chorus Pt. 4
Guitar 1
e---------------------------|------------------------|
B---------------------------|------------------------|
G----------12-------12-12---|12----12-12-------12----|
D----------12-------12-12---|12----12-12-------12----|
A-10-10-10-10-10-10-10-10-10|10-10-10-10-10-10-10-10-|
E---------------------------|------------------------|

e---------------------------|------------------------|
B---------------------------|------------------------|
G----------12----12----12---|12----12----12----12----|
D----------12----12----12---|x-----x-----x-----x-----|
A-10-10-10-10-10-10-10-10-10|10-10-10-10-10-10-10-10-|
E---------------------------|------------------------|

Guitar 2
e---------------------|------------------|
B---------------------|------------------|
G-10-10-x--------10-10|x--------10-x----x|
D-10-10-x-10-10--10-10|x-10-10--10-x-10-x|
A-8--8--x-10-10---8--8|x-10-10---8-x-10-x|
E----------8--8-------|--8--8--------8--x|

e---------------------|-----------------|
B---------------------|-----------------|
G-10-10-x--------10-10|x--------12-12-12|
D-10-10-x-10-10--10-10|x-10-10--12-12-12|
A-8--8--x-10-10---8--8|x-10-10--10-10-10|
E----------8--8-------|--8--8-----------|

Post Chorus 2
e-------------------|-------------------|
B-------------------|-------------------|
G---x-10-10-10-10-10|-------------------|
D---x-10-10-10-10-10|---x--7--7--7--7--7|
A---x--8--8--8--8--8|---x--7--7--7--7--7|
E-------------------|---x--5--5--5--5--5|

e-------------------|-------------------|
B-------------------|-------------------|
G-------------------|-------------------|
D---x-10-10-10-10-10|---x--7--7--7--7--7|
A---x-10-10-10-10-10|---x--7--7--7--7--7|
E---x--8--8--8--8--8|---x--5--5--5--5--5|

e-------------------|-------------------|
B-------------------|-------------------|
G---x-10-10-10-10-10|-------------------|
D---x-10-10-10-10-10|---x--7--7--7--7--7|
A---x--8--8--8--8--8|---x--7--7--7--7--7|
E-------------------|---x--5--5--5--5--5|

e-------------------|---------------------|
B-------------------|---------------------|
G-------------------|---------------------|
D---x-10-10-10-10-10|---x--10--10--7--7--7|
A---x-10-10-10-10-10|---x--10--10--7--7--7|
E---x--8--8--8--8--8|---x--8---8---5--5--5|

e-------------------|-------------------|
B-------------------|-------------------|
G---x-10-10-10-10-10|-------------------|
D---x-10-10-10-10-10|---x--7--7--7--7--7|
A---x--8--8--8--8--8|---x--7--7--7--7--7|
E-------------------|---x--5--5--5--5--5|

e-------------------|-------------------|
B-------------------|-------------------|
G-------------------|-------------------|
D---x-10-10-10-10-10|---x--7--7--7--7--7|
A---x-10-10-10-10-10|---x--7--7--7--7--7|
E---x--8--8--8--8--8|---x--5--5--5--5--5|

e-------------------|-------------------|
B-------------------|-------------------|
G---x-10-10-10-10-10|-------------------|
D---x-10-10-10-10-10|---x--7--7--7--7--7|
A---x--8--8--8--8--8|---x--7--7--7--7--7|
E-------------------|---x--5--5--5--5--5|

e-------------------|---------------------|
B-------------------|---------------------|
G-------------------|---------------------|
D---x-10-10-10-10-10|---x--10--10--7--7--7|
A---x-10-10-10-10-10|---x--10--10--7--7--7|
E---x--8--8--8--8--8|---x--8---8---5--5--5|

Outro
e-----------------|----------------|---------------------|------------------|
B-----------------|----------------|---------------------|------------------|
G-----------------|----------------|---------------------|-------------12-12|
D-10--10-10-10--10|10-10-10--10--10|10-10--10-10-10-10-10|10-10-10--10------|
A-----------------|----------------|---------------------|------------------|
E-----------------|----------------|---------------------|------------------|

e-----------------|----------------|---------------------|------------------|
B-----------------|----------------|---------------------|------------------|
G-----------------|----------------|---------------------|-------12-12-12-12|
D-10--10-10-10--10|10-10-10--10--10|10-10--10-10-10-10-10|10-10-------------|
A-----------------|----------------|---------------------|------------------|
E-----------------|----------------|---------------------|------------------|

e-----------------|----------------|
B-----------------|----------------|
G-12--12-12-12--12|12-12-12--12--12|
D-----------------|----------------|
A-----------------|----------------|
E-----------------|----------------|

e------------------------|-----------------------|
B------------------------|-----------------------|
G-12-12-12-12-12-12-12-12|12-12-12-12-12-12-12-12|
D------------------------|-----------------------|
A------------------------|-----------------------|
E------------------------|-----------------------|

Guitar 2
 (PM.............................................................)
e----------------|---------------|---------------|---------------|
B----------------|---------------|---------------|---------------|
G-5-5-5-5-5-5-5-5|5-5-5-5-5-5-5-5|5-5-5-5-5-5-5-5|5-5-5-5-5-5-5-5|
D-5-5-5-5-5-5-5-5|5-5-5-5-5-5-5-5|5-5-5-5-5-5-5-5|5-5-5-5-5-5-5-5|
A-3-3-3-3-3-3-3-3|3-3-3-3-3-3-3-3|3-3-3-3-3-3-3-3|3-3-3-3-3-3-3-3|
E----------------|---------------|---------------|---------------|

(PM.............................................................)
e----------------|---------------|---------------|---------------|
B----------------|---------------|---------------|---------------|
G-5-5-5-5-5-5-5-5|5-5-5-5-5-5-5-5|5-5-5-5-5-5-5-5|5-5-5-5-5-5-5-5|
D-5-5-5-5-5-5-5-5|5-5-5-5-5-5-5-5|5-5-5-5-5-5-5-5|5-5-5-5-5-5-5-5|
A-3-3-3-3-3-3-3-3|3-3-3-3-3-3-3-3|3-3-3-3-3-3-3-3|3-3-3-3-3-3-3-3|
E----------------|---------------|---------------|---------------|

e---------------------|------------------|
B---------------------|------------------|
G-10-10-x--------10-10|x--------10-x----x|
D-10-10-x-10-10--10-10|x-10-10--10-x-10-x|
A-8--8--x-10-10---8--8|x-10-10---8-x-10-x|
E----------8--8-------|--8--8--------8--x|

e---------------------|------------------|
B---------------------|------------------|
G-10-10-x--------10-10|x--------10-x----x|
D-10-10-x-10-10--10-10|x-10-10--10-x-10-x|
A-8--8--x-10-10---8--8|x-10-10---8-x-10-x|
E----------8--8-------|--8--8--------8--x|

End
The whole song is in order.
Suggest correction
comments
print report bad tab
guest
You may want to rate the tab now too:
select rating
Wanna post a correction for this tab? Suggest correction