Oops, an error
Loading. Please wait.

Alone On Christmas Day tab

by Phoenix
511 views 1 this week
2 commentsread comments
1 2 3 4 5
3 more votes to show rating
add to favorites
×
Save as Personal and add changes to this tab that will be seen only by you. Learn more ›
×
You can save this tab as Personal to edit and correct it or add notes. All changes will be seen only by you. Learn more »
launch autoscroll
font size
0
reset
how to read this tab
guitar tuner
edit
Autoscroll
slow
fast
+/-
esc
set tempo
stop
alone on christmas day


phoenix


TRANSCRIBED BY RUDY GUZMAN


guzman_84@hotmail.com


**note**
this song uses capo on the 7th fret 
but just in case you dont have a capo there's gt1, gt3 or rhythm guitar,
the parts with capo are indicated in the tab *gt2*


  piano                                             
e:-----------10--10-10-12-14--15-12-----------------14/15-12----|
B:-12--12-13-----10-10----------------13-----12-12-----------13-|
G:-12--12-12-----11-11--------12-12---12-14--12-12--12----12-12-|
D:-12--12-12-----12-12--------------0----14--12-12--------------|
A:-10--10-10---------------------------------10-10--------------|
E:--------------------------------------------------------------|

   
  verse *piano* gt1  when you find for some sad reason...              x2
e:--------------------------------------------------7-7-------------------|
B:----12-12---12-12-----12-12----12-12----12-12-----8-8----12-12----12-12-|
G:----12-12---12-12-----12-12----12-12----12-12-----7-7----12-12----12-12-|
D:----12-12---12-12-----12-12----12-12----12-12------------12-12----12-12-|
A:-10-------9-------------------------------------------------------------|
E:-------------------12-------10--------8--------7-------8-------10-------|
       rhythm guitar                                           x2
e:----3-3----3-3-----0-0-----2-2---------------------0-0-----2-2-|
B:----3-3----3-3-----0-0-----3-3------3-3----3-3-----1-1-----3-3-|
G:----0-0----0-0-----0-0--2--2-2------0-0----0-0-----2-2--2--2-2-|
D:----0-0----0-0--2-------0--0-0------0-0----0-0-----2-2--0--0-0-|
A:----------------2----------------3-------2------0--0-0---------|
E:-3-------2------0----------------------------------------------|

  gt2 capo 7th fret
e:------0-------0--------0--------0---------0--------0---------0-------0------|
B:--------1-------1--------1--------1---------1--------1---------1-------1----|
G:----0-------0--------0--------0---------0--------0---------0-------0--------|
D:----------------------------------------------------------------------------|
A:-3--------2--------0--------------------------------------------------------|
E:----------------------------3---------1--------0---------1-------3----------|
  gt3
e:--------------------------------------------------------------7-------------------------|
B:-------12---------12----------12---------12---------12----------8------12---------12----|
G:----------12---------12----------12---------12--------12----7-------------12---------12-|
D:----12---------12----------12---------12---------12------------------12--------12-------|
A:-10----------9--------------------------------------------------------------------------|
E:------------------------12----------10--------8----------7---------8--------10----------|

   when you love...
   rhythm guitar
e:-0--0-0--0-0-0--3--3-3--3-3-3-----------------------------|
B:-0--0-0--0-0-0--3--3-3--3-3-3--1--1-1--1-1-1--1--1-1-1-1--|
G:-0--0-0--0-0-0--0--0-0--0-0-0--0--0-0--0-0-0--2--2-2-2-2--|
D:-2--2-2--2-2-2--0--0-0--0-0-0--2--2-2--2-2-2--2--2-2-2-2--|
A:-2--2-2--2-2-2--0--0-0--0-0-0--3--3-3--3-3-3--0--0-0-0-0--|
E:-0--0-0--0-0-0--3--3-3--3-3-3-----------------------------|
   gt2 capo 7th fret
e:-----------------------------------------------------------------|
B:-1-----1-----1----1------1-----1-1----1-----1-----1------1-----1-|
G:---0-----0-----0-----0-----0-------0----0-----0------0-----0-----|
D:--------------------------------------------------0----0-----0---|
A:-3---3-----3------2----2-----2-----------------------------------|
E:---------------------------------1--1-----1----------------------|
   gt3
e:--------------------------------------------------------------------------|
B:-12--12-12-12-12--12--12-12-12-12-----------------------------------------|
G:-12--12-12-12-12--12--12-12-12-12--9---9--9--9--9-------------------------|
D:-12--12-12-12-12--12--12-12-12-12--10--10-10-10-10---/14-12---------------|
A:-10--10-10-10-10--9---9--9--9--9---10--10-10-10-10-----------15-14-12-----|
E:-----------------------------------8---8--8--8--8---------------------15\-|

   it sad i said
   gt1
e:-------------------------------------------------------------------|
B:-12-12-13-12--10-10-12-10--------12--10------------------12-12-12--|
G:-12-12-12-12--11-11-11-11-----12-----12--10---12-12--12--12-12-12--|
D:-12-12-12-12--12-12-12-12--10--------12--10---12-12--12--12-12-12--|
A:-10-10-10-10--10-10-10-10----------------8----10-10--10--10-10-10--|
E:-------------------------------------------------------------------|
   gt2 capo 7th fret
e:------------------------------------------------|
B:-5-5-6-5--3-3-5-3------5--3-------------5-5-5-5-|
G:-5-5-5-5--4-4-4-4----5----5--3--5-5--5--5-5-5-5-|
D:-5-5-5-5--5-5-5-5--3------5--3--5-5--5--5-5-5-5-|
A:-3-3-3-3--3-3-3-3------------1--3-3--3--3-3-3-3-|
E:------------------------------------------------|
   rhythm guitar
e:-------3-3-3-3----2-2-3-2-------------------------3-3-3-3-|
B:-------3-3-3-3----3-3-3-3----------3---3----3-----3-3-3-3-|
G:----0--0-0-0-0--2-2-2-2-2-2------0-----0----0-----0-0-0-0-|
D:----0--0-0-0-0--0-0-0-0-0-0--------------------0--0-0-0-0-|
A:-----------------------------0-3-----2----0----0----------|
E:-3---------------------------------------------3----------|
 
  why the sadness...
   gt1                    x3
e:-0--0--2-2-2-2-2-2-2-2------------------------------------|
B:-1--1--3-3-3-3-3-3-3-3------------------------------------|
G:-2--2--2-2-2-2-2-2-2-2------------------------------------|
D:-2--2--0-0-0-0-0-0-0-0------------------------------------|
A:-0--0-----------------------------------------------------|
E:----------------------------------------------------------|
   gt2 capo 7th fret      x3
e:-1--1--3-3-3-3-3-3-3-3-----------------------------------|
B:-1--1--0-0-0-0-0-0-0-0-----------------------------------|
G:-2--2--0-0-0-0-0-0-0-0-----------------------------------|
D:-3--3--0-0-0-0-0-0-0-0-----------------------------------|
A:-3--3--0-0-0-0-0-0-0-0-----------------------------------|
E:-1--1--3-3-3-3-3-3-3-3-----------------------------------|

   gt1
e:---------------------------------------------------------|
B:-12------12-------------------12\------------------------|
G:-12------12------9---------9--12\------------------------|
D:-12------12------9-----12--9--12\------------------------|
A:-10------9-------7-----12--7--10\------------------------|
E:-----------------------10--------------------------------|
   gt2 capo 7th fret
e:----------------------------|
B:-5-----5-----2--------2--5\-|
G:-5-----5-----2--------2--5\-|
D:-5-----5-----2-----5--2--5\-|
A:-3-----2-----0-----5--0--3\-|
E:-------------------3--------|
   rhythm guitar
e:----3-3----3-3-----0-0-----2-2-2-|
B:----3-3----3-3-----0-0-----3-3-3-|
G:----0-0----0-0-----0-0--2--2-2-2-|
D:----0-0----0-0--2-------0--0-0-0-|
A:----------------2----------------|
E:-3-------2------0----------------|

  time is...
  gt1
e:-0--0--2-2-2-2-2-2-2-2------------------------------------|
B:-1--1--3-3-3-3-3-3-3-3------------------------------------|
G:-2--2--2-2-2-2-2-2-2-2------------------------------------|
D:-2--2--0-0-0-0-0-0-0-0------------------------------------|
A:-0--0-----------------------------------------------------|
E:----------------------------------------------------------|
   gt2 capo 7th fret      
e:-1--1--3-3-3-3-3-3-3-3-----------------------------------|
B:-1--1--0-0-0-0-0-0-0-0-----------------------------------|
G:-2--2--0-0-0-0-0-0-0-0-----------------------------------|
D:-3--3--0-0-0-0-0-0-0-0-----------------------------------|
A:-3--3--0-0-0-0-0-0-0-0-----------------------------------|
E:-1--1--3-3-3-3-3-3-3-3-----------------------------------|

   gt1
e:----------------------------------------------------------------|
B:-12--12--12---------------------12--12--12----------------12-12-|
G:-12--12--12--9------------9-----12--12--12--9---------9---12-12-|
D:-12--12--12--9---12-12----9-----12--12--12--9--12-12--9---12-12-|
A:-10--10--9---7---12-12----7-----10--10--9---7--12-12--7---10-10-|
E:-----------------10-10-------------------------10-10------------|
   gt2 capo 7th fret
e:----------------------------------------------------|
B:-5--5--5--------------------5--5--5-------------5-5-|
G:-5--5--5--2----------2------5--5--5--2-------2--5-5-|
D:-5--5--5--2--5-5-----2------5--5--5--2--5-5--2--5-5-|
A:-3--3--2--0--5-5-----0------3--3--2--0--5-5--0--3-3-|
E:-------------3-3------------------------3-3---------|
   rhythm guitar
e:-3-3--3--0--2-2-2-2-2-0-2----------------------3-3-3-3-|
B:-3-3--3--0--3-3-3-3-3-3-3--1-1-1-1-----1-------3-3-3-3-|
G:-0-0--0--0--2-2-2-2-2-2-2--0-0-0-0-----2--0-0--0-0-0-0-|
D:-0-0--0--2--0-0-0-0-0-0-0--2-2-2-2--0--2--0-0--0-0-0-0-|
A:-0-0--0--2-----------------3-3-3-3--2--0--0-0----------|
E:-3-3--2--0--------------------------------3-3----------|


  Whether you're crusin' the lonely highway...
   rhythm guitar                                              x2
e:----3-3----3-3-----0-0-----2-2---------------------0-0-----2-2-|
B:----3-3----3-3-----0-0-----3-3------3-3----3-3-----1-1-----3-3-|
G:----0-0----0-0-----0-0--2--2-2------0-0----0-0-----2-2--2--2-2-|
D:----0-0----0-0--2-------0--0-0------0-0----0-0-----2-2--0--0-0-|
A:----------------2----------------3-------2------0--0-0---------|
E:-3-------2------0----------------------------------------------|
   gt1
e:--------------------------------------------------------------7-------------------------|
B:-------12---------12----------12---------12---------12----------8------12---------12----|
G:----------12---------12----------12---------12--------12----7-------------12---------12-|
D:----12---------12----------12---------12---------12------------------12--------12-------|
A:-10----------9--------------------------------------------------------------------------|
E:------------------------12----------10--------8----------7---------8--------10----------|
   gt2 capo 7th fret
e:------0-------0--------0--------0---------0--------0---------0-------0------|
B:--------1-------1--------1--------1---------1--------1---------1-------1----|
G:----0-------0--------0--------0---------0--------0---------0-------0--------|
D:----------------------------------------------------------------------------|
A:-3--------2--------0--------------------------------------------------------|
E:----------------------------3---------1--------0---------1-------3----------|

  when you see some happy...
   gt1
e:-0--0-0--0-0-0--3--3-3--3-3-3-----------------------------|
B:-0--0-0--0-0-0--3--3-3--3-3-3--1--1-1--1-1-1--1--1-1-1-1--|
G:-0--0-0--0-0-0--0--0-0--0-0-0--0--0-0--0-0-0--2--2-2-2-2--|
D:-2--2-2--2-2-2--0--0-0--0-0-0--2--2-2--2-2-2--2--2-2-2-2--|
A:-2--2-2--2-2-2--0--0-0--0-0-0--3--3-3--3-3-3--0--0-0-0-0--|
E:-0--0-0--0-0-0--3--3-3--3-3-3-----------------------------|
   gt2 capo 7th fret
e:-0---0-0-0-0--0--0-0-0-0------------------------------|
B:-1---1-1-1-1--1--1-1-1-1------------------------------|
G:-0---0-0-0-0--0--0-0-0-0--2--2-2-2-2------------------|
D:-2---2-2-2-2--0--0-0-0-0--3--3-3-3-3---/7-5-----------|
A:-3---3-3-3-3--2--2-2-2-2--3--3-3-3-3---------8-7-5----|
E:--------------------------1--1-1-1-1---------------8\-|
   gt3
e:--------------------------------------------------------------------------|
B:-12--12-12-12-12--12--12-12-12-12-----------------------------------------|
G:-12--12-12-12-12--12--12-12-12-12--9---9--9--9--9-------------------------|
D:-12--12-12-12-12--12--12-12-12-12--10--10-10-10-10---/14-12---------------|
A:-10--10-10-10-10--9---9--9--9--9---10--10-10-10-10-----------15-14-12-----|
E:-----------------------------------8---8--8--8--8---------------------15\-|

  it still for real...
  rhythm guitar
e:-------3-3-3-3----2-2-3-2-------------------------3-3-3-3-|
B:-------3-3-3-3----3-3-3-3----------3---3----3-----3-3-3-3-|
G:----0--0-0-0-0--2-2-2-2-2-2------0-----0----0-----0-0-0-0-|
D:----0--0-0-0-0--0-0-0-0-0-0--------------------0--0-0-0-0-|
A:-----------------------------0-3-----2----0----0----------|
E:-3---------------------------------------------3----------|
   gt1
e:-------------------------------------------------------------------|
B:-12-12-13-12--10-10-12-10--------12--10------------------12-12-12--|
G:-12-12-12-12--11-11-11-11-----12-----12--10---12-12--12--12-12-12--|
D:-12-12-12-12--12-12-12-12--10--------12--10---12-12--12--12-12-12--|
A:-10-10-10-10--10-10-10-10----------------8----10-10--10--10-10-10--|
E:-------------------------------------------------------------------|
   gt2 capo 7th fret
e:------------------------------------------------|
B:-5-5-6-5--3-3-5-3------5--3-------------5-5-5-5-|
G:-5-5-5-5--4-4-4-4----5----5--3--5-5--5--5-5-5-5-|
D:-5-5-5-5--5-5-5-5--3------5--3--5-5--5--5-5-5-5-|
A:-3-3-3-3--3-3-3-3------------1--3-3--3--3-3-3-3-|
E:------------------------------------------------|

  why the sadness...
   gt1                    x3
e:-0--0--2-2-2-2-2-2-2-2------------------------------------|
B:-1--1--3-3-3-3-3-3-3-3------------------------------------|
G:-2--2--2-2-2-2-2-2-2-2------------------------------------|
D:-2--2--0-0-0-0-0-0-0-0------------------------------------|
A:-0--0-----------------------------------------------------|
E:----------------------------------------------------------|
   gt2 capo 7th fret      x3
e:-1--1--3-3-3-3-3-3-3-3-----------------------------------|
B:-1--1--0-0-0-0-0-0-0-0-----------------------------------|
G:-2--2--0-0-0-0-0-0-0-0-----------------------------------|
D:-3--3--0-0-0-0-0-0-0-0-----------------------------------|
A:-3--3--0-0-0-0-0-0-0-0-----------------------------------|
E:-1--1--3-3-3-3-3-3-3-3-----------------------------------|

   rhythm guitar
e:----3-3----3-3-----0-0-----2-2-2-|
B:----3-3----3-3-----0-0-----3-3-3-|
G:----0-0----0-0-----0-0--2--2-2-2-|
D:----0-0----0-0--2-------0--0-0-0-|
A:----------------2----------------|
E:-3-------2------0----------------|
   gt1
e:---------------------------------------------------------|
B:-12------12-------------------12\------------------------|
G:-12------12------9---------9--12\------------------------|
D:-12------12------9-----12--9--12\------------------------|
A:-10------9-------7-----12--7--10\------------------------|
E:-----------------------10--------------------------------|
   gt2 capo 7th fret
e:----------------------------|
B:-5-----5-----2--------2--5\-|
G:-5-----5-----2--------2--5\-|
D:-5-----5-----2-----5--2--5\-|
A:-3-----2-----0-----5--0--3\-|
E:-------------------3--------|

  time is...
  gt1
e:-0--0--2-2-2-2-2-2-2-2------------------------------------|
B:-1--1--3-3-3-3-3-3-3-3------------------------------------|
G:-2--2--2-2-2-2-2-2-2-2------------------------------------|
D:-2--2--0-0-0-0-0-0-0-0------------------------------------|
A:-0--0-----------------------------------------------------|
E:----------------------------------------------------------|
   gt2 capo 7th fret     
e:-1--1--3-3-3-3-3-3-3-3-----------------------------------|
B:-1--1--0-0-0-0-0-0-0-0-----------------------------------|
G:-2--2--0-0-0-0-0-0-0-0-----------------------------------|
D:-3--3--0-0-0-0-0-0-0-0-----------------------------------|
A:-3--3--0-0-0-0-0-0-0-0-----------------------------------|
E:-1--1--3-3-3-3-3-3-3-3-----------------------------------|


   rhythm guitar
e:-3-3--3--0--2-2-2-2-2-0-2----------------------3-3-3-3-|
B:-3-3--3--0--3-3-3-3-3-3-3--1-1-1-1-----1-------3-3-3-3-|
G:-0-0--0--0--2-2-2-2-2-2-2--0-0-0-0-----2--0-0--0-0-0-0-|
D:-0-0--0--2--0-0-0-0-0-0-0--2-2-2-2--0--2--0-0--0-0-0-0-|
A:-0-0--0--2-----------------3-3-3-3--2--0--0-0----------|
E:-3-3--2--0--------------------------------3-3----------|
   gt1
e:----------------------------------------------------------------|
B:-12--12--12---------------------12--12--12----------------12-12-|
G:-12--12--12--9------------9-----12--12--12--9---------9---12-12-|
D:-12--12--12--9---12-12----9-----12--12--12--9--12-12--9---12-12-|
A:-10--10--9---7---12-12----7-----10--10--9---7--12-12--7---10-10-|
E:-----------------10-10-------------------------10-10------------|
   gt2 capo 7th fret
e:----------------------------------------------------|
B:-5--5--5--------------------5--5--5-------------5-5-|
G:-5--5--5--2----------2------5--5--5--2-------2--5-5-|
D:-5--5--5--2--5-5-----2------5--5--5--2--5-5--2--5-5-|
A:-3--3--2--0--5-5-----0------3--3--2--0--5-5--0--3-3-|
E:-------------3-3------------------------3-3---------|

   rhythm guitar
e:-3-3--3--0--2-2-2-2-2-0-2-----------------3-3-|
B:-3-3--3--0--3-3-3-3-3-3-3--1-1-1-1-----1--3-3-|
G:-0-0--0--0--2-2-2-2-2-2-2--0-0-0-0-----2--0-0-|
D:-0-0--0--2--0-0-0-0-0-0-0--2-2-2-2--0--2--0-0-|
A:-0-0--0--2-----------------3-3-3-3--2--0--0-0-|
E:-3-3--2--0--------------------------------3-3-|
   gt1
e:------------------------------------------------------|
B:-12--12--12---------------------12--12--12------------|
G:-12--12--12--9------------9-----12--12--12--9---------|
D:-12--12--12--9---12-12----9-----12--12--12--9--12-12--|
A:-10--10--9---7---12-12----7-----10--10--9---7--12-12--|
E:-----------------10-10-------------------------10-10--|
   gt2 capo 7th fret
e:---------------------------------------------|
B:-5--5--5--------------------5--5--5----------|
G:-5--5--5--2----------2------5--5--5--2-------|
D:-5--5--5--2--5-5-----2------5--5--5--2--5-5--|
A:-3--3--2--0--5-5-----0------3--3--2--0--5-5--|
E:-------------3-3------------------------3-3--|



hillo son mex

9/12/15

            
            
Suggest correction
Creating personal tab
Creating personal tab
You can edit any tab online and save it as your Personal.

You can edit, replace or remove any tab part or add personal notes – all changes will be seen only by you.

Personal tabs can be accessed anytime from any device, even offline.
Learn more »
Give kudos to tab author, rate the tab!
1 2 3 4 5
comments
print report bad tab
2 comments total.
0 reply
g4r7r4y05 10 Dec 26, 2015 04:36 AM

hello, is there anybody knows where to find a drum tab for this song "Alone On Christmas Day" thank you all.

0 reply
nalga_leprosa 3,708 Dec 26, 2015 06:02 AM

i dont think there is one yet the song is still barely new, this phoenix version of course

guest
You may want to rate the tab now too:
select rating
Wanna post a correction for this tab? Suggest correction