Oops, an error
Loading. Please wait.

Armistice Tab

5,292 views 39 this week
no commentswrite comment
1 2 3 4 5
poor
x 3
add to favorites
launch autoscroll
font size
0
reset
how to read this tab
guitar tuner
Tab Pro tools
  • play this tab
  • loop segment
  • change instrument
  • show fretboard
  • metronome
Autoscroll
slow
fast
+/-
esc
set tempo
stop
Difficulty
intermediate
Armistice by Pheonix
Last Track (10) on Wolfgang Amadaus Pheonix

first ever tab. hope its good. got it from a guy on youtube doing a 

cover and i watched to see what he was doing, listened, played then 

tabed. 

btw, some of the x's can be played if you want, not all of them but 

i was just sort of tabbing the important parts of the chords.

Capo 4th Fret

Intro Chord

e|x
A|3
D|4
G|5
B|x
E|x

Verse

e|3---|x---|x---|x---|
A|x---|0---|5---|2---|
D|3---|3---|4---|5---|
G|4---|4---|0---|4---|
B|5---|5---|3---|5---|
E|x---|x---|x---|x---|

e|x---|5---|2---|x---|
A|3---|3---|5---|2---|
D|5---|5---|4---|5---|
G|4---|x---|x---|4---|
B|5---|5---|x---|5---|
E|x---|x---|x---|x---|

e|x---|x---|x---|x---|
A|3---|0---|3---|2---|
D|5---|5---|2---|5---|
G|4---|4---|x---|4---|
B|5---|5---|x---|x-5-|
E|x---|x---|x---|x---|

e|x---|5---|2---|x---|
A|3---|3---|5---|2---|
D|5---|5---|4---|5---|
G|4---|x---|x---|4---|
B|5---|5---|x---|5---|
E|x---|x---|x---|x---|

Chorus

e|x---|5---|3---|3-2-|
A|3---|3---|x---|x---|
D|5---|5---|5---|5---|
G|4---|x---|4---|4---|
B|5---|5---|5---|5---|
E|x---|x---|x---|x---| 



Verse 2 (cool part)

e|x-------|5-------|x-------|x-------|
A|3-------|3-------|3-------|x-------| /
D|5-------|5----554|x-------|x-------|/|_____spred out for clarity
G|4-------|x-------|4-------|x-------|\|
B|5-------|5-------|5-------|7-------| \
E|x-------|x-------|x-------|x---2-3-|


e|x---|5---|2---|x---|
A|3---|3---|5---|2---|
D|5---|5---|4---|5---|
G|4---|x---|x---|4---|
B|5---|5---|x---|5---|
E|x---|x---|x---|x---|


e|x-------|5-------|x-------|x-------|
A|3-------|3-------|3-------|x-------| 
D|5-------|5----554|x-------|x-------|
G|4-------|x-------|4-------|x-------|
B|5-------|5-------|5-------|7-------|
E|x-------|x-------|x-------|x---2-3-|


e|x---|5---|2---|x---|
A|3---|3---|5---|2---|
D|5---|5---|4---|5---|
G|4---|x---|x---|4---|
B|5---|5---|x---|5---|
E|x---|x---|x---|x---|

Chorus

Bridge 

e|x-------|x-------|0-------|0-------|
A|3-------|3---320-|2-------|2----020| 
D|2-------|2-------|2-------|2---0---|
G|0-------|0-------|0-------|0-------|
B|x-------|x-------|x-------|X-------|
E|x-------|x-------|x-------|x-------|


e|x---0---|x-------|\
A|3---2---|3---320-|\
D|2---x---|2-------||---\____leads straight into outro
G|0---0---|0-------||---/
B|x-------|x-------|/
E|x-------|x-------|/

Outro

e|x-------|x-------|x---0---|x-------|
A|3-------|3-------|3---2---|3---320-|
D|2-------|2-------|2---x---|2-------|
G|0-------|0-------|0---0---|0-------|
B|3-------|3-------|x-------|x-------|
E|3-------|3-------|x-------|x-------|
comments
We did not receive enough feedback on this tab! Please rate:
print report bad tab
1 2 3 4 5
I want to post or [tab]
guest
You may want to rate the tab now too:
select rating
Please do not post tabs as comments. Select "correction" instead!