Oops, an error
Loading. Please wait.

Chloroform Tab

4,182 views 15 this week
1 commentread comment
1 2 3 4 5
accurate
x 5
add to favorites
launch autoscroll
font size
0
reset
how to read this tab
guitar tuner
Tab Pro tools
  • play this tab
  • loop segment
  • change instrument
  • show fretboard
  • metronome
Autoscroll
slow
fast
+/-
esc
set tempo
stop
Contributor
Chloroform - Phoenix

Tabbed by: mitcheroo
E-mail: mitcheroo2@hotmail.com

Tuning: Standard
BPM: 68
Key: F Major
Time Signature: 4/4
Structure: Intro
           Verse x2
           Chorus
           Verse x2
           Chorus x2
           Outro/Instrumental

An amazing new song from one of my favourite bands of all time, also my first tab - most 
of it seems correct, enjoy!
---------------------------------------------------------------------------
Main/Recurring Theme
e|--------5-8---------5-8---------5-8---------5-8---------5-8-----|
B|----5-8---------5-8---------5-8---------5-8---------5-8---------|
G|5-7---------5-7---------5-7---------5-7---------5-7---------5-7-|
D|----------------------------------------------------------------|
A|----------------------------------------------------------------|
E|----------------------------------------------------------------|
  1   +   2   +   3   +   4   +   1   +   2   +   3   +   4   +
e|5-8---------5-8---------5-8---------5-8---------5-8---------5-8-|
B|--------5-8---------5-8---------5-8---------5-8---------5-8-----|
G|----5-7---------5-7---------5-7---------5-7---------5-7---------|
D|----------------------------------------------------------------|
A|----------------------------------------------------------------|
E|----------------------------------------------------------------|
  1   +   2   +   3   +   4   +   1   +   2   +   3   +   4   +
---------------------------------------------------------------------------
Melody
e|----------------------------------------------------------------|
B|--------5-------------------------------5-----------------------|
G|----5-7-----------------------------5-7-------------------------|
D|----------------7-------7-5---------------------7---5---7---5---|
A|----------------------------------------------------------------|
E|----------------------------------------------------------------|
  1   +   2   +   3   +   4   +   1   +   2   +   3   +   4   +

e|------------------------------------------------5---8-----------|
B|--------5-------------------------------5---8-------------------|
G|----5-7-----5-----------------------5-7-------------------------|
D|----------------7---5-7-----------------------------------------|
A|----------------------------------------------------------------|
E|----------------------------------------------------------------|
  1   +   2   +   3   +   4   +   1   +   2   +   3   +   4   +

e|----------------------------------------------------------------|
B|--------5-------------------------------5-----------------------|
G|----5-7-----------------------------5-7-------------------------|
D|----------------7-------7-5---------------------7-------7-7-5---|
A|----------------------------------------------------------------|
E|----------------------------------------------------------------|
  1   +   2   +   3   +   4   +   1   +   2   +   3   +   4   +

e|----------------5---8---------------------------5---8-----------|
B|--------5---8---------------------------5---8-------------------|
G|----5-7-----------------------------5-7-------------------------|
D|----------------------------------------------------------------|
A|----------------------------------------------------------------|
E|----------------------------------------------------------------|
  1   +   2   +   3   +   4   +   1   +   2   +   3   +   4   +
---------------------------------------------------------------------------
Verse Chord Progression
F Maj                                                E Min*
1       +       2       +       3       +       4       +
F Maj                                                E Min*
1       +       2       +       3       +       4       +
F Maj                                                G Maj*
1       +       2       +       3       +       4       +
A Min                                       A Min*   G Maj*
1       +       2       +       3       +       4       +

F Maj                                                E Min*
1       +       2       +       3       +       4       +
F Maj                                                B Min*
1       +       2       +       3       +       4       +
C Maj7                                               B Min*
1       +       2       +       3       +       4       +
C Maj7
1       +       2       +       3       +       4       +
*anticipated
---------------------------------------------------------------------------
Chorus Chord Progression
F Maj
1       +       2       +       3       +       4       +
C Maj7
1       +       2       +       3       +       4       +
A Min                                                                      x2
1       +       2       +       3       +       4       +
A Min                                                  (G Maj)*
1       +       2       +       3       +       4       +
*only play first time
---------------------------------------------------------------------------
Outro/Instrumental Chord Progression (accompanied by a C Major Pentatonic)
F Maj
1       +       2       +       3       +       4       +
F Maj6
1       +       2       +       3       +       4       +
C Maj
1       +       2       +       3       +       4       +
D Min           C Maj   Bb Maj  G Min           F Maj
1       +       2       +       3       +       4       +
G Min
1       +       2       +       3       +       4       +
C Min
1       +       2       +       3       +       4       +

G Min           F Maj           Eb Maj
1       +       2       +       3       +       4       +
D Min                           C Min
1       +       2       +       3       +       4       +
G Min                           G Min           F Maj
1       +       2       +       3       +       4       +                  x2
Eb Maj                          D Min
1       +       2       +       3       +       4       +
C Min                   G Min
1       +       2       +       3       +       4       +
---------------------------------------------------------------------------
Lyrics
[Verse 1]
I don't always tell the truth
They don't mind it if you're told where I'm from
Anyone I find intrusive
You won't bother if you choose me

[Verse 2]
I don't only think of you
As untitled, insecure; chloroform
I would rather stand if you stay
Why would I lie to you?

[Chorus]
My love, my love, my love is
Cruel

[Verse 3]
Buckle up, we'll chase each other
It's not a lot it's just enough to matter
Any way you want the truth is
I will marry you on Tuesday

[Verse 4]
I don't always tell the truth
If you want it you could lose, don't bother
I don't like it if you miss me
Why would I long for you?

[Chorus]
My love, my love, my love is
Cruel

[Chorus]
My love, my love, my love is
Cruel

[Outro/Instrumental]
Would I long for you?
Is it up to you?
comments
print report bad tab
1 comment total.
0 reply
Rautio wrote on August 18 2014, 01:23 pm, edited at 01:37 pm

The presentation of chords is pretty viewer-unfriendly.

I want to post or [tab]
guest
You may want to rate the tab now too:
select rating
Please do not post tabs as comments. Select "correction" instead!