Oops, an error
Loading. Please wait.

Consolation Prizes Tab

version 2
version 2

Whole song

Interactive

5,313 views 6 this week
no commentswrite comment
1 2 3 4 5
1 last vote to show rating
add to favorites
launch autoscroll
font size
0
reset
how to read this tab
guitar tuner
Autoscroll
slow
fast
+/-
esc
set tempo
stop
Help us to improve Ultimate-Guitar.com Take our survey!
×
              x3
e---------------|-9--9--9--9--------------|
b-2-2-2-2-2-2-2-|-11-11-11-11-9--9--9--9--|
g-3-3-3-3-3-3-3-|-11-11-11-11-10-10-10-10-|
D-4-4-4-4-4-4-4-|-------------------------|
A-4-4-4-4-4-4-4-|-------------------------|
E---------------|-------------------------|

e----------------|-9--9--9--9--------------|
b-2-2--2-2--2-2--|-11-11-11-11-9--9--9--9--|
g-3-3--3-3--3-3--|-11-11-11-11-10-10-10-10-|
D-4-4--4-4--4-4--|-------------------------|
A-4-4--4-4--4-4--|-------------------------|
E----------------|-------------------------|

                 x2
e------------------|---------6-6--6-6-|-------------------9-----|
b---------2-2--2-2-|---------7-7--7-7-|-------2-2----11------11-|
g---------3-3--3-3-|---------8-8--8-8-|-------3-3--11--11--11---|
D---------4-4--4-4-|---------8-8--8-8-|-------4-4---------------|
A---------4-4--4-4-|------------------|-------4-4---------------|
E------------------|------------------|-------------------------|

Suggest correction
Give kudos to tab author, rate the tab!
1 2 3 4 5
comments
print report bad tab
guest
You may want to rate the tab now too:
select rating
Wanna post a correction for this tab? Suggest correction