Oops, an error
Loading. Please wait.

Entertainment Tab

version 1
version 1

Whole song

9,425 views 12 this week
1 commentread comment
1 2 3 4 5
accurate
x 5
add to favorites
launch autoscroll
font size
0
reset
how to read this tab
guitar tuner
Autoscroll
slow
fast
+/-
esc
set tempo
stop
Help us to improve Ultimate-Guitar.com Take our survey!
×
Contributor
UH-HiloMOKES 2,519
Standard Tuning
Synth Intro
e-13-13-11-11----13-13-11-11----13-11-13-15-11~--|
b-------------13-------------13------------------|
g------------------------------------------------|
d------------------------------------------------|  2x
a------------------------------------------------|
e------------------------------------------------|

e------------------------------------------------|
b------------------------------------------------|
g-10-10-8-8----10-10-8-8----10-8-10-12-10-8------|
d-----------10-----------10-----------------10~--|
a------------------------------------------------|
e------------------------------------------------|

e-13-13-11-11----13-13-11-11----13-11-13-15-11~--|
b-------------13-------------13------------------|
g------------------------------------------------|
d------------------------------------------------|
a------------------------------------------------|
e------------------------------------------------|

e----------------------------------------------------------------------------|
b-------------------11~-----11-13~-----11-13-11-----------11-13-11-----------|
g----------10-12-13------13---------13----------13-10--------------13-10-----|
d-10-11-13--------------------------------------------13-----------------13--|
a----------------------------------------------------------------------------|
e----------------------------------------------------------------------------|

Rhythm Guitar
e---------------------------------------------------|
b---------------------------------------------------|
g--------------------------666666666666666666666666-|
d-666666666666666666666666-666666666666666666666666-|
a-666666666666666666666666-444444444444444444444444-|
e-444444444444444444444444--------------------------|

The (553)'s and (664)'s are optional.  You can strum chord once and let it ring or also play
what's in parenthesis.
e----------------------------------------------------------------------------|
b----------------------------------------------------------------------------|
g--------------------------5(555)5(555)5(555)5(555)-6(666)6(666)6(666)6(666)-|
d-666666666666666666666666-5(555)5(555)5(555)5(555)-6(666)6(666)6(666)6(666)-|
a-666666666666666666666666-3(333)3(333)3(333)3(333)-4(444)4(444)4(444)4(444)-|
e-444444444444444444444444---------------------------------------------------|

Verse (Palm mute.  Can either pick the notes in tab below or strum the chords in rhythm)
e-----------------------------------------------------------------------------------------------|
b-----------------------------------------------------------------------------------------------|
g-----------------------------------------------------------------------------------------------|
d----10----10----10----10----10----10----10-1010----13----13----13----13----13----13----13-1313-|
a-11----11----11----11----11----11----11----1111-11----11----11----11----11----11----11----1111-|
e-----------------------------------------------------------------------------------------------|

Pre-Chorus
Guitar
e-------------------|
b-------------------|
g-10~---------------|
d-10~--11~--8~--6~--|
a--8~--11~--8~--6~--|
e-------9~--6~--4~--|

Synth
e-----------------------------------------------------|
b---------------11-13------11-------------------------|
g-10~-------------------13------10---------------13~--|
d--------11~-----------------------13---11-10---------|
a-----------------------------------------------------|
e-----------------------------------------------------|

Chorus  (For 2nd chord of chorus, it was either the 785 or an 886 chord.  It didn't 100% sound
like the D# chord but you can use that chord instead of what I got)
e----------------------------------------------------|
b----------------------------------------------------|
g-6666666666666666-7777777777777777------------------|   2x
d-6666666666666666-8888888888888888-6666666666666666-|
a-4444444444444444-5555555555555555-6666666666666666-|
e-----------------------------------4444444444444444-|

end with
e-----
b-----
g-6~--
d-6~--
a-4~--
e-----

Synth Bridge
e---------------------11-------------11----------------------------------------|
b------------------------13~---11-13----13-11----11----11-13-11----------------|
g-10~----12~----13~---------------------------13----13----------13-10----10-13-|
d---------------------------------------------------------------------13-------|

e-----------------------------------------11~-----11-13-11-13-15-13-|
b-------11----11-13-11~-----11-13~--11-13------13-------------------|
g-10-13----13------------13-----------------------------------------|
d-------------------------------------------------------------------|

e-11----11------------------------------------------------------------------------|
b----13------13---11-13-11-----11-13-11-----------------------------11----11------|
g---------------------------13----------13--10-10-10----10-13-10-13----13----13~--|
d----------------------------------------------------13---------------------------|

I'll try tab out the synth for the chorus later on.  Just that the bridge was a pain to 
type out and
I'm lazy right now.
comments
print report bad tab
1 comment total.
0 reply
duggie25 71 wrote on April 24 2013, 07:46 pm

I think the rhythm guitar in the verses doesn't go straight from Ab to C#, I think there's an Fm in between them. Other than that, tab seems a little jumbled and disorganized.

I want to post or [tab]
guest
You may want to rate the tab now too:
select rating
Please do not post tabs as comments. Select "correction" instead!