Oops, an error
Loading. Please wait.

Entertainment Tab

version 2
version 2

Whole song

4,042 views 1 this week
no commentswrite comment
1 2 3 4 5
1 last vote to show rating
add to favorites
launch autoscroll
font size
0
reset
how to read this tab
guitar tuner
Autoscroll
slow
fast
+/-
esc
set tempo
stop
Help us to improve Ultimate-Guitar.com Take our survey!
×
Author
Intro/Pre Verse Riff
e|---------------------------------------------------------------|
B|---------------------------------------------------------------|
G|---------------------------------------------------------------|
D|-----------------------5---------------------------------------|
A|-8-6-----8-6-----8-6-8---6~~-----------------------------------|
E|-----8-------8-----------------6-4-1--6-4-1---6-4-6-8-6-4-1~~~-|

e|--------------------------------------------------------|
B|--------------------------------------------------------|
G|------------------------------8--8--8--8----10-10-10-10-|
D|-----------------------5------10-10-10-10---11-11-11-11-|
A|-8-6-----8-6-----8-6-8---6~---10-10-10-10---11-11-11-11-|
E|-----8-------8----------------8--8--8--8----9--9--9--9--|


Verse (hard to explain the strumming pattern, theres no pauses but it was the best format
Also the way I play it is Index finger on 4, middle finger on 5, ring finger on 6, and 
just use my pinky to hammer on the G and B strings)
e|-----------------------------------|
B|-44-4444-44-4444--46-4646--46-4646-|
G|-55-6565-55-6565--55-5555--55-5555-|
D|-66-6666-66-6666--66-6666--66-6666-|
A|-----------------------------------|
E|-----------------------------------|

Pre Chorus
Guitar 1
e|----------------------|
B|----------------------|
G|-10~---6~-------------|
D|-10~---6~---8~---6~---|
A|-8~----4~---8~---6~---|
E|------------6~---4~---|

Guitar 2 just plays this until "take the trouble that you had in mind"
e|---|
B|-6-|
G|-5-|
D|---|
A|---|
E|---|

Then at that part it plays
e|------------------|
B|-8-8-8-8-8-8--9---|
G|-6-6-6-6-6-6--6---|
D|------------------|
A|------------------|
E|------------------|


Chorus
e|-----------------------------|
B|-----------------------------|
G|-6-6-6-6------------------6~-|
D|-6-6-6-6-8-8-8-8-6-6-3-6--6~-|
A|-4-4-4-4-8-8-8-8-6-6-3-6--4~-|
E|---------6-6-6-6-4-4-1-4-----|

Before verse 2 you can hear this "I'd rather be alone"
e|----------------------------|
B|----------------------------|
G|-6//8//9---6//8//9/////(13)-|
D|----------------------------|
A|----------------------------|
E|----------------------------|

Outro
Guitar 1 (x2)
e|--------------------------|
B|--------------------------|
G|-6-6-6-6-8-8-8-8-5-5-10-8-|
D|-6-6-6-6-8-8-8-8-5-5-10-8-|
A|-4-4-4-4-6-6-6-6-3-3-8--6-|
E|--------------------------|

Guitar 2 plays around with this I think
e|----|
B|-9--|
G|-6--|
D|-6--|
A|----|
E|----|

Here's the order of the parts too.
Intro/Pre Verse Riff
Verse
Pre Chorus
Chorus
(x2)
Outro
Intro/Pre Verse Riff
Suggest correction
Give kudos to tab author, rate the tab!
1 2 3 4 5
comments
print report bad tab
guest
You may want to rate the tab now too:
select rating
Wanna post a correction for this tab? Suggest correction