Oops, an error
Loading. Please wait.

Fata Verde Tab

3,011 views 3 this week
1 commentread comment
1 2 3 4 5
3 more votes to show rating
add to favorites
launch autoscroll
font size
0
reset
how to read this tab
guitar tuner
Autoscroll
slow
fast
+/-
esc
set tempo
stop
Help us to improve Ultimate-Guitar.com Take our survey!
×
Author
-are capodastru la tasta 4, deci e in C#m;
-eu l-am scris in Am;

intro:
   Am    C    G      D           Am    
e|----0----0---------2-----2p0------0-|
B|----1----1------3--3---3-----3----1-|
G|--------------0------2--------------|
D|-------------------0----------------|
A|--0----3------------------------0---|
E|------------3-----------------------|

   C      D      Am  C    G     D     C     E    Am
e|--------2--------0---0--------3----|----0----0-----0---0-|
B|-----1--3---3----1---1------3-2---3|----1----0----2-2----|
G|---0------2---------------0-----2--|-------------2---2---|
D|--------0---------------------0----|---------------------|
A|-3-------------0---3---------------|--3----2----0--------|
E|------------------------3----------|---------------------|


Hmmm hmmmm hmmmmmmm......

    G       C      %     se repeta% Am     
e|--3---3---3------0------|----|
B|--3-----3-----3----1----|----|
G|----0-------0--------0--|----|
D|------------------------|----|
A|-----------------3------|----|
E|--3---3---3-------------|----|

e|--0---0---0-----0------0---0---0-----0------0-----|
B|--1-1---1---1-----1------1---0-1-------1----------|
G|--------------2-----2--------------2-----2--------|
D|---------------------------------2----------------|
A|--0---0---0-----0------3---2---0------------------|
E|--------------------------------------------------|

Vers 1: 

   Am   C    G     D    Am   C          D
   Trec tigani pe drum, drumu-i plin de fum
   Am   C    G     D     C   E  Am
   Fumu-i plin de scrum, foc ardea
   Vai tigani, tigani, gipsy si gitani 
   Fara cer si ani, trec pe drum.

Vers 2:
  
   G       C    G         C
   Tiganie rai, rai care erai
   Am            C  E  Am
   Caravan serai giacardea
   Raiul meu beteag de pe alt meleag
   Cat imi esti de drag, nu stiu cum.

vers 1:
   Trec tigani prin colb, colbul este orb
   Orbul e un corb giacardea
   Cade seara-n camp soarele-i scalamb
   Cortul este stramb foc ardea.

vers2:
   Fac tiganii foc, focu-i la mijloc
   Fete cu ghioc
   Si cu carti de joc, hai noroc, noroc
   Vino la soroc.

vers 1
   Vino sa-ti ghicesc cartile vorbesc
   Si nu ne mintesc, giacardea
   Fata de caro sub cer indigo
   Sa-ti spun incotro foc ardea.

vers 2
   Ca multi ani s-au scurs de cand el s-a dus
   Cu un pui de urs pe un drum
   Cu belciug si lant fara nici un sfant 
   Spre un targ bizant foc ardea.

vers 1
   Zaiafet acum lautari duium
   Numai tu nicicum, giacardea
   Noaptea de-ar veni pe pamantul gri
   De ne-ar adormi orisicum.

vers2
   O dar azi dar azi ceru-i de atlaz
   Soarele-n extaz
   Ei se duc la pas spre un alt popas
   Satra de pripas
   Pana nu-i mai vezi, pana nu-i mai crezi
   Si din ochi ii pierzi
   Printre ceturi verzi, ceturi de livezi
   Vezi ca nu-i mai vezi.

vers1
Giacardea, cardea
Gialino mura
Gia mura mura
Ce misto ...
Suggest correction
Give kudos to tab author, rate the tab!
1 2 3 4 5
comments
print report bad tab
1 comment total.
0 reply
Dwg 10 Feb 24, 2013 07:10 AM

asta e mica tiganiada frate

guest
You may want to rate the tab now too:
select rating
Wanna post a correction for this tab? Suggest correction