Oops, an error
Loading. Please wait.

Fences Bass Tab

3,937 views 9 this week
1 commentread comment
1 2 3 4 5
please rate
add to favorites
launch autoscroll
font size
0
reset
guitar tuner
Tab Pro tools
  • play this tab
  • loop segment
  • change instrument
  • show fretboard
  • metronome
×
Best way to learn
"Fences"
Autoscroll
slow
fast
+/-
esc
set tempo
stop
Contributor
Difficulty
novice
Song: Fences
Artist: Phoenix
Album: Wolfgang Amadeus Phoenix

Standard Tuning

Intro 0:09 - 0:35
G|--------------------------------------------|
D|--------------------------------------------|
A|---5-5-5--0-0-0-3----------------------3----|
E|--5------3---------3-3-3-3-5/1-1-1-3-5------|

G|--------------------------------------------|
D|--------------------------------------------|
A|---5-5-5--0-0-0-3----------------------3----|
E|---------3---------3-3-3-3-5/1-1-1-3-5------|

G|------------------------------------------------|
D|---------------------------17-17-17-17-17-17-17-|
A|-5-5-5-5--0-0-0-0-3-----------------------------|
E|---------3----------3~~-------------------------|

No bass 0:36 0:51

Pre-Chorus 0:52 1:16
G|-------------------------------------------------------|
D|-15-15-15-15-15-15-15-15-15-17-17-17-17-17-17-17-17-17-|
A|-------------------------------------------------------|
E|-------------------------------------------------------|

G|-------------------------------------------------------|
D|-15/---------------------------------------------------|
A|-----1~-3~-5~-3~-01~-3~-5~-7~--------------------------|
E|-------------------------------------------------------|

Chorus 1:17 1:42
G|--------------------------------------------|
D|--------------------------------------------|
A|---5-5-5--0-0-0-3----------------------3----|
E|--5------3---------3-3-3-3-5/1-1-1-3-5------|

G|--------------------------------------------|
D|--------------------------------------------|
A|---5-5-5--0-0-0-3----------------------3----|
E|---------3---------3-3-3-3-5/1-1-1-3-5------|

G|------------------------------------------------|
D|---------------------------17-17-17-17-17-17-17-|
A|-5-5-5-5--0-0-0-0-3-----------------------------|
E|---------3----------3~~-------------------------|

No Bass 1:43 1:59

Pre-Chorus 2:00 2:24
G|-------------------------------------------------------|
D|-15-15-15-15-15-15-15-15-15-17-17-17-17-17-17-17-17-17-|
A|-------------------------------------------------------|
E|-------------------------------------------------------|

G|-------------------------------------------------------|
D|-15/---------------------------------------------------|
A|-----1~-3~-5~-3~-01~-3~-5~-7~--------------------------|
E|-------------------------------------------------------|

Chorus 2:25 2:46
G|--------------------------------------------|
D|--------------------------------------------|
A|---5-5-5--0-0-0-3----------------------3----|
E|--5------3---------3-3-3-3-5/1-1-1-3-5------|

G|--------------------------------------------|
D|--------------------------------------------|
A|---5-5-5--0-0-0-3----------------------3----|
E|---------3---------3-3-3-3-5/1-1-1-3-5------|

G|------------------------------------------------|
D|------------------------------------------------|
A|-5-5-5-5--0-0-0-0-3-----------------------------|
E|---------3----------3~~-------------------------|

No Bass 2:47 3:03

Chorus 3:04 3:29
G|--------------------------------------------|
D|--------------------------------------------|
A|---5-5-5--0-0-0-3----------------------3----|
E|--5------3---------3-3-3-3-5/1-1-1-3-5------|

G|--------------------------------------------|
D|--------------------------------------------|
A|---5-5-5--0-0-0-3----------------------3----|
E|---------3---------3-3-3-3-5/1-1-1-3-5------|

G|------------------------------------------------|
D|---------------------------17-17-17-17-17-17-17-|
A|-5-5-5-5--0-0-0-0-3-----------------------------|
E|---------3----------3~~-------------------------|

No Bass until the end :/

I translated from the complete multitracks so if you think it's wrong then you're kind 
saying Phoenix is wrong ?
I'll try to submit the whole Wolfgang Amadeus Phoenix album for bass, but leave a 
if you already translate one of the songs as I did.
comments
We did not receive enough feedback on this tab! Please rate:
print report bad tab
1 2 3 4 5
1 comment total.
0 reply
blablablabanaan wrote on October 27 2014, 04:19 pm

Hi! Great tab, just missing a little bit of tablature for the "no bass" bit.

That moment for instance at 0:36 is just one line, the second line of no bass should be:


G|------------------------------------------------|
D|------------------------------------------------|
A|-1---5-555----1---5-555----1---5-555----1-1-1-1-|
E|------------------------------------------------|/tab]

That's for the bits at 0:42 - 0:52 and 1:51 - 2:00.

Nice one though!

I want to post or [tab]
guest
You may want to rate the tab now too:
select rating
Please do not post tabs as comments. Select "correction" instead!