Oops, an error
Loading. Please wait.

If I Ever Feel Better Bass Tab

version 3
version 3

Whole song

Interactive

7,380 views 27 this week
1 commentread comment
1 2 3 4 5
excellent!
x 4
add to favorites
launch autoscroll
font size
0
reset
guitar tuner
Autoscroll
slow
fast
+/-
esc
set tempo
stop
Help us to improve Ultimate-Guitar.com Take our survey!
×
Author
Difficulty
Yeti22 78
intermediate
This is a bit different than the ones circulating the web.
It's really a mock up of the most accurate parts of the other tabs + videos of this bass 
being played.
I'm pretty sure it's close to 100% correct; the only doubt I have is the first line of 
Chorus may need a bit of reviewing.

Cheers!


INTRO
They say an end can be a start, Feels like I've been buried yet still alive
G-------------------------------------------------------------------------|
D-------------------------------------------------------------------------|
A---5---5-------------------------4---4-----------------------------------|
E-------------------------------------------------------------------------|

It's like a bad day that never ends, I feel the chaos around me
G-------------------------------------------------------------------------|
D-------------------------------------------------------------------------|
A---7---7-------------------------5---5-----------------------------------|
E-------------------------------------------------------------------------|

A thing I don't try to deny, I'd better learn to accept that
G-------------------------------------------------------------------------|
D-------------------------------------------------------------------------|
A---4---4-----------------------------------------------------------------|
E---------------------------2~~~~-----------------------------------------|

There are things in my life that I can't control
G-------------------------------------------------------------------------|
D-------------------------------------------------------------------------|
A---9-9--------8-8---------7-7----------/12\------------------------------|
E-------------------------------------------------------------------------|

VERSE (x4)
They say love ain't nothing but a sore I don't even know what love is...
G-------------------------------------------------------------------------|
D---------2---------------------------------------------------------------|
A--2-2--2-----------------4--5-5--5-/7-7--7-/9-9---7-4-4\-----------------|
E----------0---0-5-5---5--------------------------------------------------|

CHORUS
If I ever feel better... Remind me to spend some good time with you...
G----------------------------------------------11-9--11-------------------|
D-------------------------------------------------------------------------|
A-----------------------5--4--5-5--5-/7-7--7-/9--7--9--/12\---------------|
E--2-2--2-0-0--0-5-5--5---------------------------------------------------|


G-------------------------------------------------------------------------|
D-------------------------------------------------------------------------|
A------------------------5-4--5-5--/5-7-7--/9-9--7--4-4-------------------|
E--2-2--2-0-0--0-5-5--5---------------------------------------------------|

INTRO... a little different
G-------------------------------------------------------------------------|
D-------------------------------------------------------------------------|
A---5---5-------------------------4---4-----------------------------------|
E-------------------------------------------------------------------------|


G-------------------------------------------------------------------------|
D-------------------------------------------------------------------------|
A---7---7-------------rest----------------12\-5---5-----------------------|
E-------------------------------------------------------------------------|

G-------------------------------------------------------------------------|
D-------------------------------------------------------------------------|
A---4---4-----------------------------------------------------------------|
E---------------------------2~~~~-----------------------------------------|


G-------------------------------------------------------------------------|
D-------------------------------------------------------------------------|
A---9-9--------8-8---------7-7----------/12\------------------------------|
E-------------------------------------------------------------------------|

VERSE (x2)
G-------------------------------------------------------------------------|
D---------2---------------------------------------------------------------|
A--2-2--2-----------------4--5-5--5-/7-7--7-/9-9---7-4-4\-----------------|
E----------0---0-5-5---5--------------------------------------------------|

CHORUS (x2)
If I ever feel better... Remind me to spend some good time with you...
G----------------------------------------------11-9--11-------------------|
D-------------------------------------------------------------------------|
A-----------------------5--4--5-5--5-/7-7--7-/9--7--9--/12\---------------|
E--2-2--2-0-0--0-5-5--5---------------------------------------------------|


G-------------------------------------------------------------------------|
D-------------------------------------------------------------------------|
A------------------------5-4--5-5--/5-7-7--/9-9--7--4-4-------------------|
E--2-2--2-0-0--0-5-5--5---------------------------------------------------|

INTRO... a little different
G-------------------------------------------------------------------------|
D-------------------------------------------------------------------------|
A---5---5-------------------------4---4-----------------------------------|
E-------------------------------------------------------------------------|


G-------------------------------------------------------------------------|
D-------------------------------------------------------------------------|
A---7---7-------------rest----------------12\-5---5-----------------------|
E-------------------------------------------------------------------------|

G-------------------------------------------------------------------------|
D-------------------------------------------------------------------------|
A---4---4-----------------------------------------------------------------|
E-----------------------2~~~~---------------------------------------------|


G-------------------------------------------------------------------------|
D-------------------------------------------------------------------------|
A---9-9--------8-8---------7-7----------/12\------------------------------|
E-------------------------------------------------------------------------|

VERSE (x2)
G-------------------------------------------------------------------------|
D---------2---------------------------------------------------------------|
A--2-2--2-----------------4--5-5--5-/7-7--7-/9-9---7-4-4\-----------------|
E----------0---0-5-5---5--------------------------------------------------|

CHORUS (x4ish)
If I ever feel better... Remind me to spend some good time with you...
G----------------------------------------------11-9--11-------------------|
D-------------------------------------------------------------------------|
A-----------------------5--4--5-5--5-/7-7--7-/9--7--9--/12\---------------|
E--2-2--2-0-0--0-5-5--5---------------------------------------------------|


G-------------------------------------------------------------------------|
D-------------------------------------------------------------------------|
A------------------------5-4--5-5--/5-7-7--/9-9--7--4-4-------------------|
E--2-2--2-0-0--0-5-5--5---------------------------------------------------|


Have fun!
Suggest correction new What's this?
You can suggest a correction to this tab. Community and Mods will review your correction and vote to approve or reject it.
comments
print report bad tab
1 comment total.
0 reply
abel_thsts.jf 11 wrote on July 11 2013, 12:23 am

este tab no esta al 100% correct.

guest
You may want to rate the tab now too:
select rating
Please do not post tabs as comments. Select "correction" instead!