Oops, an error
Loading. Please wait.

Im An Actor Tab

843 views 1 this week
1 commentread comment
1 2 3 4 5
x 3
add to favorites
launch autoscroll
font size
0
reset
how to read this tab
guitar tuner
Autoscroll
slow
fast
+/-
esc
set tempo
stop
Help us to improve Ultimate-Guitar.com Take our survey!
×
Difficulty
intermediate
I'm An Actor by Phoenix

---0--6--6--5---3--2--1----0--6--6--5---3--2--1---|
---0--6--6--5---3--2--1----0--6--6--5---3--2--1---|
---1--7--7--6---4--3--2----1--7--7--6---4--3--2---|
---2--8--8--7---6--4--3----2--7--8--7---6--4--3---|
---2--8--8--7---6--4--3----2--8--8--7---6--4--3---|
---0--6--6--5---3--2--1----0--6--6--5---3--2--1---|
Suggest correction
Give kudos to tab author, rate the tab!
1 2 3 4 5
comments
print report bad tab
1 comment total.
0 reply
wtflolbbq 345 May 06, 2014 12:30 PM

---0--6--6--5---3--2--1----0--6--6--5---3--2--1---|
---0--6--6--5---3--2--1----0--6--6--5---3--2--1---|
---1--7--7--6---4--3--2----1--7--7--6---4--3--2---|
---2--8--8--7---5--4--3----2--8--8--7---5--4--3---|
---2--8--8--7---5--4--3----2--8--8--7---5--4--3---|
---0--6--6--5---3--2--1----0--6--6--5---3--2--1---|

guest
You may want to rate the tab now too:
select rating
Wanna post a correction for this tab? Suggest correction