Oops, an error
Loading. Please wait.

Lasso Bass Tab

version 2
version 2

Whole song

Interactive

3,342 views 3 this week
2 commentsread comments
1 2 3 4 5
accurate
x 3
add to favorites
launch autoscroll
font size
0
reset
guitar tuner
Autoscroll
slow
fast
+/-
esc
set tempo
stop
Help us to improve Ultimate-Guitar.com Take our survey!
×
Difficulty
intermediate
-------------------------------------------------------------------------------
			     Lasso - Phoenix
-------------------------------------------------------------------------------
Tabbed by: Alex B 

Tuning: Standard

Bass

Verse 1:

G|-----16-------16------13----13---------------------------------------------|
D|--14----14-14-----11----11------------11-------11-------13------11---------|
A|-------------------------------0-11-13----13-13----13-11----11-9----0------|
E|---------------------------------------------------------------------------|

Pre-Chorus 1:

G|---------------------------------------------------------------------------|
D|---------------------------------------------------------------------------|
A|---------------------------------------------------------------------------|
E|-9-7-9-7-9-7-9-7-9-7-9-7-9-7-9-7-9-7-9-7-----------------------------------|

Chorus: (no bass on first repeat)

G|-----------------------------------------------11--------------------------|
D|---------------------------------9-9-9-9-9-9-9----11-11-11-11-11-11-11-11--|
A|-7-7-7-7-7-7-7-7-7-7-7-7-7-7-7-7-------------------------------------------|
E|---------------------------------------------------------------------------|

G|---------------------------------------------------------------------------|
D|---------------------------------------------------------------------------|
A|--------------------------------------x-9-9-9-9-9-9-9-9--------------------|
E|-9-9-9-9-9-9-9-9-11-11-11-11-11-11-11--------------------------------------|

Verse 2:

G|---------------------------------------------------------------------------|
D|---9-----9-----8---8------------------8--9--8------------------------------|
A|-7---7-7---7-9---9---9-0---9-----9--9---------9-0-7------------------------|
E|-------------------------7---7-7-------------------------------------------|

G|-9-------------------------------------------------------------------------|
D|-------9-----8---8-----------------8------8-9-8----------------------------|
A|---7-7---0-9---9---9-7-7---9-----9---9--9----------------------------------|
E|-------------------------7---7-7-------------------------------------------|

Pre-Chorus 2:

G|---------------------------------------------------------------------------|
D|---------------------------------------------------------------------------|
A|-14-14-14-14-14-14-14-14-14-14-14-14-14-14-14-14-13-13-13-13-13-13-13------|
E|---------------------------------------------------------------------------|

G|---------------------------------------------------------------------------|
D|---------------------------------------------------------------------------|
A|-11--11-11-11-11-11-11-11-7-7-7-7-7-7-7-6-4-4-4-4-4-4-4--------------------|
E|---------------------------------------------------------------------------|

G|---------------------------------------------------------------------------|
D|-------------------------13------11----------------------------------------|
A|-13-13-13-13-13-13-13-11----11-9----0--------------------------------------|
E|---------------------------------------------------------------------------|

Chorus

Pre-Chorus 1

Verse

Pre-Chorus 2

Pre-Chorus 1

The exact number of notes on the chorus/pre-chorus 2 are a bit out but hopefully its pretty close.

End
Suggest correction
Give kudos to tab author, rate the tab!
1 2 3 4 5
comments
print report bad tab
2 comments total.
0 reply
HannesKnutsson 10 wrote on July 16 2014, 08:46 am

True it was not 100% perfect, but it's easy to find and correct the errors.

Very awesome song and useful tab. Thanks!

0 reply
HannesKnutsson 10 wrote on July 16 2014, 08:47 am

Would be awesome with a corrected and complete version of verse 2.

Having problems finding that.. :/

guest
You may want to rate the tab now too:
select rating
Wanna post a correction for this tab? Suggest correction