Oops, an error
Loading. Please wait.

Lasso Tab

version 2
version 2

Whole song

Interactive

25,001 views 12 this week
1 commentread comment
1 2 3 4 5
accurate
x 6
add to favorites
launch autoscroll
font size
0
reset
how to read this tab
guitar tuner
Tab Pro tools
  • play this tab
  • loop segment
  • change instrument
  • show fretboard
  • metronome
×
Best way to learn
"Lasso"
Autoscroll
slow
fast
+/-
esc
set tempo
stop
Contributor
Difficulty
intermediate
i transcribed this tab by ear and did so many re-checks so i hope this tab would 
be as close to the real thing as possible


INTRO
         -       -       -                -       -       -
e|7---6---6---7---6---6---7---6---|7---6---6---7---6---6---7---6---|
B|--------------------------------|--------------------------------|
G|--------------------------------|--------------------------------|
D|--------------------------------|--------------------------------|
A|--------------------------------|--------------------------------|
E|--------------------------------|--------------------------------|


VERSE 1
(this part is actually played with a bass guitar, but it's fun to play it on 
guitar as you're playing the song)

                 where             would    you    go
                 -                                -
e|--------------------------------|--------------------------------|
B|--------------------------------|--------------------------------|
G|--------------------------------|--------------------------------|
D|-----------------9--------------|-------------9------------------|
A|-7-----------------------------7|-7------------------------------|
E|--------------------------------|-------------------------------9|
  
  not             long            ago              i've        been
                 -                                -
e|--------------------------------|--------------------------------|
B|--------------------------------|--------------------------------|
G|--------------------------------|--------------------------------|
D|--------------------------------|--------------------------------|
A|-----------11-------------------|11------------------------------|
E|-----------------------------9--|-----------------9-------4------|

  thinking      out                loud  
               -                                -
e|--------------------------------|--------------------------------|
B|--------------------------------|--------------------------------|
G|--------------------------------|--------------------------------|
D|--------------------------------|--------------------------------|
A|-6---------------6--------------|---------6----------------------|
E|-------------------------4------|-2---------------4------2-------|

  why    so       sudden-          -ly 
                 -                                -
e|--------------------------------|--------------------------------|
B|--------------------------------|--------------------------------|
G|--------------------------------|--------------------------------|
D|--------------------------------|--------------------------------|
A|---------------6----------------|-----------------4--------------|
E|-----------------------4-------2|--------------------------------|

  d'     d'       don't            you     know
                 -                                -
e|--------------------------------|--------------------------------|
B|--------------------------------|--------------------------------|
G|--------------------------------|--------------------------------|
D|-----------------9--------------|--------------------------------|
A|-7-----------------------------7|------------11------------------|
E|--------------------------------|--9----------------------------9|
  
  don't           do     it        what    you     do     oh
                 -                                -
e|--------------------------------|--------------------------------|
B|--------------------------------|--------------------------------|
G|--------------------------------|--------------------------------|
D|--------------------------------|--------------------------------|
A|-----------11-------------------|11------------------------------|
E|-----------------------------9--|-----------------9-------4------|

  what   you    do        to       me
               -                                -
e|--------------------------------|--------------------------------|
B|--------------------------------|--------------------------------|
G|--------------------------------|--------------------------------|
D|--------------------------------|--------------------------------|
A|-6---------------6--------------|---------6----------------------|
E|-------------------------4------|-2---------------4------2-------|

  
                 -                                -
e|--------------------------------|--------------------------------|
B|--------------------------------|--------------------------------|
G|--------------------------------|--------------------------------|
D|--------------------------------|--------------------------------|
A|---------------6----------------|-----------------4--------------|
E|-----------------------4-------2|--------------------------------|

the above part is still played one more time, along with this:

                                                            forever   is   a 
            

long   long    time    when    you've    lost    your    way
E                              E                

    try   to   follow    your    ideals                     oh sorry but your
F#                             G#m

so     called   life                                it     is    such   a
E                              E                

waste
F#                             G#m


   E    F#   G#m      
e|-4----6----7---|
B|-5----7----9---|
G|-4----6----8---|
D|---------------|
A|---------------|
E|---------------|


PRE-CHORUS
                                                      wear     your

  real            eyes                             no      you
                 -                                -
e|--------------------------------|--------------------------------|
B|--------------------------------|--------------------------------|
G|--------------------------------|--------------------------------|
D|-9-------9-------9-------7------|-7-------7--------9-------9-----|
A|--------------------------------|--------------------------------|
E|-7-------7-------7-------5------|-5-------5--------7-------7-----|

  don't           rea-             -lize           what   you're
                 -                                -
e|--------------------------------|--------------------------------|
B|--------------------------------|--------------------------------|
G|--------------------------------|--------------------------------|
D|-9-------9-------9-------7------|-7-------7--------9-------9-----|
A|--------------------------------|--------------------------------|
E|-7-------7-------7-------5------|-5-------5--------7-------7-----|
 
  saying          yes              to              but    you're
                 -                                -
e|--------------------------------|--------------------------------|
B|--------------------------------|--------------------------------|
G|--------------------------------|--------------------------------|
D|-9-------9-------9-------7------|-7-------7--------9-------9-----|
A|--------------------------------|--------------------------------|
E|-7-------7-------7-------5------|-5-------5--------7-------7-----|

  saying          yes              to
                 -                                -
e|--------------------------------|--------------------------------|
B|--------------------------------|--------------------------------|
G|11------11------11-------11-----|11------11------11------11------|
D|--------------------------------|--------------------------------|
A|-9-------9-------9--------9-----|-9-------9-------9-------9------|
E|--------------------------------|--------------------------------|


CHORUS

  where           would    you     go              where
                 -                                -
e|--------------------------------|--------------------------------|
B|-9-------9-------9--------9-----|-9-------9-------9-------9------|
G|-9-------9-------9--------9-----|-9-------9-------9-------9------|
D|--------------------------------|--------------------------------|
A|-7-------7-------7--------7-----|-7-------7-------7-------7------|
E|--------------------------------|--------------------------------|

  would    you    go               with     a      la-
                 -                                -
e|--------------------------------|--------------------------------|
B|-9-------9-------9--------9-----|-9-------9-------9-------9------|
G|-9-------9-------9--------9-----|-9-------9-------9-------9------|
D|--------------------------------|--------------------------------|
A|-7-------7-------7--------7-----|-7-------7-------7-------7------|
E|--------------------------------|--------------------------------|

  -sso  
                -                                -
e|--------------------------------|--------------------------------|
B|11------11------11-------11-----|11------11------12------12------|
G|11------11------11-------11-----|11------11------13------13------|
D|--------------------------------|--------------------------------|
A|-9-------9-------9--------9-----|-9-------9------11------11------|
E|--------------------------------|--------------------------------|

                 -                                -
e|--------------------------------|--------------------------------|
B|12------12------12-------12-----|12------12------12------12------|
G|13------13------13-------13-----|13------13------13------13------|
D|--------------------------------|--------------------------------|
A|11------11------11-------11-----|11------11------11------11------|
E|--------------------------------|--------------------------------|


INTERLUDE
                 -                                -
e|--------------------------------|--------------------------------|
B|--------------------------------|--------------------------------|
G|13------------------------------|------------------------13------|
D|--------------------------------|--------------------------------|
A|--------------------------------|--------------------------------|
E|--------------------------------|--------------------------------|

                 -                                -
e|--------14--------------16------|--------14----------------------|
B|--------------------------------|--------------------------------|
G|15------15--------------16------|--------15----------------------|
D|--------------------------------|--------------------------------|
A|--------------------------------|--------------------------------|
E|--------------------------------|--------------------------------|

                 -                                -
e|16------14--------------12------|------------------------14------|
B|--------------------------------|--------------------------------|
G|16------15--------------13------|--------13------15--------------|
D|--------------------------------|--------------------------------|
A|--------------------------------|--------------------------------|
E|--------------------------------|--------------------------------|

                 -                                -
e|--------16--------------14------|--------14----------------------|
B|--------------------------------|--------------------------------|
G|15--------------16--------------|15------------------------------|
D|--------------------------------|--------------------------------|
A|--------------------------------|--------------------------------|
E|--------------------------------|--------------------------------|

                 -                                -
e|--------------------------------|16------14--12----12------------|
B|--------------------------------|--------------------------------|
G|--------------------------------|16------15--13----13----13------|
D|--------------------------------|--------------------------------|
A|--------------------------------|--------------------------------|
E|--------------------------------|--------------------------------|

                 -                                -
e|--------14--------------16------|--------14--------------14------|
B|--------------------------------|--------------------------------|
G|15--------------15--------------|16--------------15--------------|
D|--------------------------------|--------------------------------|
A|--------------------------------|--------------------------------|
E|--------------------------------|--------------------------------|

                 -                                -
e|------16----------------14------|--------12--------------------11|
B|--------------------------------|--------------------------------|
G|------16--------15--------------|13--------------------11--------|
D|--------------------------------|--------------------------------|
A|--------------------------------|--------------------------------|
E|--------------------------------|--------------------------------|

                 -                                -
e|---------------------9----------|-----7--------------------------|
B|--------------------------------|--------------------------------|
G|-------------9---------------8--|--------------------------------|
D|--------------------------------|--------------------------------|
A|--------------------------------|--------------------------------|
E|--------------------------------|--------------------------------|


OUTRO

                 -                -                
e|----------------11-----------------------9-------|
B|-------------------------------------------------|
G|-9------11---------------9------11---------------|
D|-------------------------------------------------|
A|-------------------------------------------------|
E|-------------------------------------------------|


tabbed by rhkm
comments
print report bad tab
1 comment total.
+2 reply
RampagingAcorn wrote on February 23 2011, 11:36 pm

I've found that the intro sounds better when played like this:
e|-11-11-11-11-11-11-11-11-11-11-11-11-11-11-11-11-11-|
B|-12-11-11-12-11-11-12-11-11-12-11-11-12-11-11-12-12-|
G|-11-11-11-11-11-11-11-11-11-11-11-11-11-11-11-11-11-|
D|----------------------------------------------------|
A|----------------------------------------------------|
E|----------------------------------------------------|

I want to post or [tab]
guest
You may want to rate the tab now too:
select rating
Please do not post tabs as comments. Select "correction" instead!