Oops, an error
Loading. Please wait.

Lisztomania Tab

version 2
version 2

Acoustic

Whole song

Interactive

19,234 views 3 this week
no commentswrite comment
1 2 3 4 5
1 last vote to show rating
add to favorites
launch autoscroll
font size
0
reset
how to read this tab
guitar tuner
Autoscroll
slow
fast
+/-
esc
set tempo
stop
Help us to improve Ultimate-Guitar.com Take our survey!
×
Difficulty
Capo
intermediate
4th fret
so i've been listening to phoenix for a while, but i was totally blown away by Wolfgang
Phoenix.. Lisztomania is definitely one of the top tracks, and when i first heard the
acoustic version on youtube my mind was blown. i checked up for the tab but saw that the 
was a bit different, so i thought i'd try to do the best i could and help you guys
there.
Tabbed by: Kendall Russ

Standard Tuning
CAPO ON 4 - the tab is all relative to the capo, and it is absolutely essential you have
capo to play the acoustic version

Introduction (lasts all of a few seconds)

e--7---|
B--7---|
G--7---|
D--X---|
A--5---|
E--7---| (you can mute the low E string if you can't get the fingering properly)

Repeat that as many times as you need, listen to the song to find it out

VERSE
(keep the A and low E string muted with your thumb)

e--0-0-000000-0--0-0-0000000-0------|
B--3-3-333333-3--3-3-3333333-3------|
G--5-5-555555-5--4-4-4444444-4------| (3X)
D--5-5-555555-5--5-5-5555555-5------|
A--X-X-XXXXXX-X--X-X-XXXXXXX-X------|
E--X-X-XXXXXX-X--X-X-XXXXXXX-X------|

e--5-5-5555555-5--0-00-000-0-00-000-|
B--3-3-3333333-3--3-33-333-3-33-333-|
G--5-5-5555555-5--4-44-444-5-55-555-|
D--4-4-4444444-4--5-55-555-4-44-444-|
A--X-X-XXXXXXX-X--X-XX-XXX-X-XX-XXX-|
E--X-X-XXXXXXX-X--X-XX-XXX-X-XX-XXX-|

Then...

CHORUS

e-----------------------------------77---------777-----------------|
B-(0)-------------------------------77---------777-----------------|
G--5----------------5---------------77---------777-----------------|
D--5----------------5---------------XX---------XXX-----------------|
A--3----------------3---------------55---------555-----------------|
E--X----------------5---------------77---------777-----------------|

e--XX-XXX-XXX-XXX---XX-XXX-XXX-XXX--77-777-777-777-----------------|
B--00-000-000-000---XX-XXX-XXX-XXX--77-777-777-777-----------------|
G--55-555-555-555---55-555-555-555--77-777-777-777-----------------|
D--55-555-555-555---55-555-555-555--XX-XXX-XXX-XXX-----------------|
A--33-333-333-333---33-333-333-333--55-555-555-555-----------------|
E--XX-XXX-XXX-XXX---55-555-555-555--77-777-777-777-----------------|


Then you go right back into the verse
VERSE (X2)


CHORUS

e------------------------------------------------------------------|
B-(0)--------------------------------------------------------------|
G--5----------------5---------------7----------777-----------------|
D--5----------------5---------------7----------777-----------------|
A--3----------------3---------------5----------555-----------------|
E--X----------------5---------------7----------777-----------------|

e--XX-XXX-XXX-XXX---XX-XXX-XXX-XXX--77-777-777-777-----------------|
B--XX-XXX-XXX-XXX---XX-XXX-XXX-XXX--77-777-777-777-----------------|
G--55-555-555-555---55-555-555-555--77-777-777-777-----------------|
D--55-555-555-555---55-555-555-555--77-777-777-777-----------------|
A--33-333-333-333---33-333-333-333--55-555-555-555-----------------|
E--XX-XXX-XXX-XXX---55-555-555-555--77-777-777-777-----------------|

And that's about it! Awesome song, hope this helps you out, just mess around with the
listen to the song or watch the youtube videos to get the gist of it. Thanks!

Lyrics:

So sentimental
Not sentimental, no!
Romantic, not discussing it
Darling I'm down and lonely
When we're the fortunate only
I've been looking for something else
Duel it, duel it, duel it, juggle it, duel it, duel it

Go slowly, discouraged,
Distant from other interests
On your favorite we can end it
This love's for gentlemen only
That's with the fortunate only
No I gotta be someone else
These days it comes it comes it comes it comes it comes and goes

Lisztomania
Think less but see it grow
Like a ride, like a riot, Oh!
Not easily offended
Know how to let it go
From a mess to the masses

Lisztomania
Think less but see it grow
Like a ride, like a riot, Oh!
Not easily offended
Know how to let it go
From a mess to the masses

Follow, misguide, stand still
Discuss, discourage
On this precious we can end it
This love's for gentlemen only
Wealthiest gentlemen only
And now that you're lonely
Duel it, duel it, duel it, juggle it, duel it, duel it

Let's go slowly, discouraged,
We'll burn the pictures instead
When it's all over we can barely discuss
For one minute only
Not with the fortunate only
Thought it could have been something else
These days it comes it comes it comes it comes it comes and goes

Lisztomania
Think less but see it grow
Like a ride, like a riot, Oh!
Not easily offended
Know how to let it go
From a mess to the masses
Suggest correction
Give kudos to tab author, rate the tab!
1 2 3 4 5
comments
print report bad tab
guest
You may want to rate the tab now too:
select rating
Wanna post a correction for this tab? Suggest correction