Oops, an error
Loading. Please wait.

Lisztomania Tab

version 3
version 3

Acoustic

Whole song

Interactive

64,227 views 36 this week
4 commentsread comments
1 2 3 4 5
excellent!
x 11
add to favorites
launch autoscroll
font size
0
reset
how to read this tab
guitar tuner
Tab Pro tools
  • play this tab
  • loop segment
  • change instrument
  • show fretboard
  • metronome
×
Best way to learn
"Lisztomania"
Autoscroll
slow
fast
+/-
esc
set tempo
stop
Contributor
Capo
4th fret
-------------------------------------------------------------------------------
                             Lisztomania(Acoustic) - Phoenix
-------------------------------------------------------------------------------
Tabbed by: Fred S.
Email: dragonlance00@gmail.com

Tuning: Stardard (Capo 4) All notes relative to capo



Chords

        E       B1      B2      E2      Eb
e|------0-------0-------5-------0-------7-----------------------------------------|
B|------3-------3-------3-------3-------7-----------------------------------------|
G|------5-------4-------x-------5-------7-----------------------------------------|
D|------5-------5-------5-------4-------0-----------------------------------------|
A|------x-------x-------x-------x-------x-----------------------------------------|
E|------x-------x-------x-------x-------x-----------------------------------------|

Notes: if you see B1*, play this-

E|---0---|---0---|       |---0---|
B|---3---|---5---|       |---5---|
G|---4---|---4---|  x3   |---4---|         
D|---5---|---5---|       |---3---|
A|---x---|---x---|       |---x---|
E|---x---|---x---|       |---x---|



=============================================

Intro: Eb   E

               B1
So sentimental
                 E  
Not sentimental, no!
                         B1*
Romantic, not discussing it
            E
Darling I'm down and lonely
               B2
When we're the fortunate only
                      E2
I've been looking for something else
                      B1*
These days it comes it comes it comes it comes it comes and goes


Lisztomania           Think less but see it grow
e------------------0----------------7
B------------------0----------------7
G--0-0-0-0-0-0-0-0-5--5-5-5-5-5-5-5-7
D--5-5-5-5-5-5-5-5-5--5-5-5-5-5-5-5-X
A------------------X----------------X
E------------------x----------------X


Like a ride, like a riot, oh!

e----------------7
B----------------7
G--7-7-7-7-7-7-7-7  Start strumming again
D--0-0-0-0-0-0-0-0
A----------------x
E----------------x

E                    B2
   Not easily offended
                   Eb
Know how to let it go

From a mess to the masses

E                        B1
Follow, misguide, stand still
                   E
Discuss, discourage
                        B1*  
On this precious we can end it
                  E
This love's for gentlemen only
            B2
Wealthiest gentlemen only

                    E2
And now that you're lonely
                      B1*
Duel it, duel it, duel it, juggle it, duel it, duel it

           E                  B1
Let's go slowly, discouraged,

                             E
We'll burn the pictures instead
                           B1*
When it's all over we can barely discuss
     E
For one minute only
               B2
Not with the fortunate only
                                     E2
Thought it could have been something else
                      B1*  
These days it comes it comes it comes it comes it comes and goes


Lisztomania           Think less but see it grow
e------------------0----------------7
B------------------0----------------7
G--0-0-0-0-0-0-0-0-5--5-5-5-5-5-5-5-7
D--5-5-5-5-5-5-5-5-5--5-5-5-5-5-5-5-X
A------------------X----------------X
E------------------x----------------X

Like a ride, like a riot, oh!

e----------------7
B----------------7
G--7-7-7-7-7-7-7-7  
D--0-0-0-0-0-0-0-0
A----------------x
E----------------x

Not easily offended    Know how to let it go
e-------------------0-----------------7
B-------------------0-----------------7
G--0-0-0-0-0-0-0-0--5---5-5-5-5-5-5-5-7
D--5-5-5-5-5-5-5-5--5---5-5-5-5-5-5-5-X
A-------------------X-----------------X
E-------------------x-----------------X

From a mess to the masses

e----------------7
B----------------7
G--7-7-7-7-7-7-7-7  Start strumming again
D--0-0-0-0-0-0-0-0
A----------------x
E----------------x

E             E2
  Lisztomania
                       Eb
Think less but see it grow
                          E
Like a ride, like a riot, oh!
                    E2
Discour- Discour - Discour - Discour - Discour
       B1*
Discouraged



I know the lyrics are not the same as the one in the recording.
I believe they change it up for the acoustic version, though its easy to compensate
for it. I tabbed this based off of the following video http://www.youtube.com/
watch?v=seU5S5DLDpU&feature=related. Also, my chord names may also be wrong haha
don't kill me for it. As for the strumming pattern, i personally do something like 

this

D DU D DU D DU UDU


ENjoy! Comments feedback welcome. 
comments
print report bad tab
4 comments total. Showing first comments.
0 reply
gr33nboard wrote on August 16 2010, 12:29 am

Awesome! just what i was looking for thanks!

0 reply
bobthesamurai wrote on August 21 2010, 08:56 pm

i dont really understand what you mean by b1*.
can you please explain it?

0 reply
ernesto11 wrote on October 4 2010, 05:48 pm

watch the video i posted. at around 21 secs, he does what i mean by b1*. He quickly alternates between the two chords i posted.

I want to post or [tab]
guest
You may want to rate the tab now too:
select rating
Please do not post tabs as comments. Select "correction" instead!