Oops, an error
Loading. Please wait.

Lisztomania Chords

version 2
version 2

Whole song

Interactive

37,089 views 78 this week
1 commentread comment
1 2 3 4 5
excellent!
x 22
add to favorites
launch autoscroll
font size
0
reset
transpose
0
reset
simplify chords
display chords
guitar tuner
Autoscroll
slow
fast
+/-
esc
set tempo
stop
Help us to improve Ultimate-Guitar.com Take our survey!
×
Difficulty
novice
Artist: Phoenix
Song: Lisztomania
Album: Wolfgang Amadeus Phoenix

C:      x32013  Gsus4: 320010
D7sus4: xx0013  C/E:   032010
Am7:    x02013  G6:    320000
Fsus2:  133011  F:     133211
C/B:    x20010  Dm:    xx0231

Intro: C
e|----3---3---3---3---3---3---3----|
B|--1---1---1---1---1---1---1---1--|
G|---------------------------------|
D|---------------------------------|  x2
A|---------------------------------|
E|---------------------------------|

Guitar 1:
e|-------------------------------| |---------------------------------------|
B|---1-----1-----1-----1-----1---| |---1-----1-----1------1----1-3-1-3-1---|
G|-------------------------------| |---------------------------------------|
D|-------------------------------| |---------------------------------------|
A|-------------------------------| |---------------------------------------|
E|-------------------------------| |---------------------------------------|

e|-------------------------------| |---------------------------------------|
B|---1-----1-----1-----1-----1---| |---1-----1-----1-3-1-3-1-3-1-3-1-3-1---|
G|-------------------------------| |---------------------------------------|
D|-------------------------------| |---------------------------------------|
A|-------------------------------| |---------------------------------------|
E|-------------------------------| |---------------------------------------|

Guitar 2:
e|-------------------------------|
B|-------------------------------|
G|---0-----0---0-0-0-0-----------|
D|---------------------2-2-2-2-0-|  x4
A|-------------------------------|
E|-------------------------------|


[Verse]
D7sus4          Am7
 So sentimental,   not sentimental no
Fsus2                      Am7 Gsus4 C/E  D7sus4
 Romantic not disgusting,  Yet   dar-ling I'm
Fsus2                          D7sus4
Down and lonely, When with the fortunate only
                      C/B
I've been looking for something else, do let do let
   Am7     C       Fsus2  D7sus4
Do let jugulate do let do let do

                             Am7
Let's go slowly, discouraged,    distant from other interests
Fsus2                      Am7    Gsus4 C/E    D7sus4
 On your favorite weekend, ending this  love's for
Fsus2                           D7sus4
Gentlemen only, that's with the fortunate only
              C/B
No I gotta be someone else these days
            Am7      C        Fsus2    D7sus4
It comes it comes it comes it comes it comes

[Chorus]
    F                  Dm
And goes, lisztomania,    think less but see it grow
G6
 Like a riot, like a riot, oh
F             Dm
 Not easily offended
                    G6
 Not hard to let it go, from a mess to the masses
F            Dm
 Lisztomania,   think less but see it grow
G6
 Like a riot, like a riot, oh
F             Dm
 Not easily offended
                    G6
 Not hard to let it go, from a mess to the masses


[Verse]
D7sus4                          Am7
 Follow, misguide, stand still,   Disgust, discouraged
Fsus2                      Am7    C     Fsus2  C/E
 On this precious weekend, ending this  love's for
Fsus2                      D7sus4
Gentlemen only, wealthiest gentlemen only
                    C/B
And now that you're lonely, do let do let
   Am7     C       Fsus2  D7sus4
Do let jugulate do let do let do

        D7sus4               Am7
Lets go slowly, discouraged,    we'll burn the pictures instead
Fsus2                      Am7     C   Fsus2 C/E
 When it's all over we can barely  dis-cuss  for
 Fsus2                         D7sus2
 One minute only, not with the fortunate only
                            C/B
 Thought it could have been something else
                        Am7      C        Fsus2    D7sus4
 These days it comes it comes it comes it comes it comes

[Chorus]

C5
Mmmmm, it's showtime, it's showtime, it's showtime
Ohhhh, it's showtime, it's showtime, it's showtime

G5                                            F5
Time - time to show up, time to show up, it's time to show up
G5                                            F5
Time - time to show up, time to show up, it's time to show up

C

[Solo]
Fsus2 D7sus4 Am7
Fsus2 D7sus4 Am7
Fsus2 D7sus4 Am7
Fsus2 D7sus4 Am7
             From a mess to the masses

Fsus2        D7sus4
 Lisztomania,       think less but see it grow
Am7
   Like a riot, like a riot, oh
Fsus2                     D7sus4
     Discuss, discuss, discuss, discuss, discuss
         Am7
 This story
Suggest correction
comments
print report bad tab
1 comment total.
+1 reply
lulyz419 10 wrote on March 30 2013, 04:59 pm

Well, this is perfect, congrats

guest
You may want to rate the tab now too:
select rating
Wanna post a correction for this tab? Suggest correction