Oops, an error
Loading. Please wait.

Long Distance Call Tab

version 1
version 1

Whole song

Interactive

27,243 views 9 this week
no commentswrite comment
1 2 3 4 5
accurate
x 4
add to favorites
launch autoscroll
font size
0
reset
how to read this tab
guitar tuner
Tab Pro tools
  • play this tab
  • loop segment
  • change instrument
  • show fretboard
  • metronome
×
Best way to learn
"Long Distance Call"
Autoscroll
slow
fast
+/-
esc
set tempo
stop
Contributor
Since the cd version doesn't have any rythmguitar Long distance call
needs to be played like on the bbc2 radioprogram. If you are unable to
get that version try to play these chords with the cd.
Sounds pretty funky!

from bbc2 radioprogram:       capotasto on third fret
from cd:                      capotasto on fifth fret
Live gig                      capotasto on fifth fret

What is a capotasto?
A capo (aka "capotasto") is a mechanical device that
clamps across the guitarneck holding all the strings down at one fret.
It enables you to play in different keys.


INTRO

Note:
the intro chords are easiest played
if the thumb is used to push down the bass E string notes.


E|-----3-----------0---------0----------3-----------|
B|-----3-----------0---------3----------3-----------|
G|-----4-----------0---------4----------4-----------|
D|-----5-----------4---------4----------5-----------|
A|-----5-----------5---------5----------5-----------|
E|-----3-----------3---------3----------3-----------|

VERSE

   where to go I .......... about it        26-10 was...

E|---3------------------------0-------0-------3----------0-------0--|
B|---3------------------------0-------3-------5---- -----0-------3--|
G|---4------------------------0-------2-------4----------0-------2--|
D|---5------------------------2-------0-------5----------2-------0--|
A|---5------------------------2-------0-------3----------2-------0--|
E|---3------------------------0-------2-------X----------0-------2--|

CHORUS

     I'm far gone but       and your capi - tol      letters keep me..

E|----0--------------------------------X------X---------0----------|
B|----1--------------------------------0------0---------1----------|
G|----2--------------------------------0------0---------2----------|
D|----2--------------------------------2------0---------2----------|
A|----0--------------------------------3------2---------0----------|
E|----X--------------------------------X------X---------X----------|

During the "It's never been like that" part you play
the same chords as during the intro.

Peace out ;)
comments
print report bad tab
I want to post or [tab]
guest
You may want to rate the tab now too:
select rating
Please do not post tabs as comments. Select "correction" instead!