Oops, an error
Loading. Please wait.

Love For Granted Tab

9,772 views 24 this week
no commentswrite comment
1 2 3 4 5
excellent!
x 7
add to favorites
launch autoscroll
font size
0
reset
how to read this tab
guitar tuner
Autoscroll
slow
fast
+/-
esc
set tempo
stop
Help us to improve Ultimate-Guitar.com Take our survey!
×
Author
Difficulty
novice
Phoenix - Love For Granted (album version)
Album: Alphabetical (2004)
Tabbed by: Marco Arduini (catcherintherye@katamail.com)
Tuning: standard

Intro (1x)/
1st verse (2x):

   Asus4            Asus4/Db
E----------------------------------------------------------------|
B---3--3--3--3--3-----2--2--2--2--2------------------------------|
G----2--2--2--2--2-----2--2--2--2--2-----------------------------|
D--0--0--0--0--0--0-0---0--0--0--0--0----------------------------|
A----------------------------------------------------------------|
E----------------------------------------------------------------|
       Oh these days are gone...

   Gmaj7        Gmaj7/E
E------2------------0---0----------------------------------------|
B---3-----3-3----3----33-3---------------------------------------|
G----0-----0------0----------------------------------------------|
D----------------------------------------------------------------|
A----------------------------------------------------------------|
E--3------------3------------------------------------------------|
       It's getting late and I can't call...

   D         D/E       D/Db       A/D
E-----2---------0----------2---------0---------------------------|
B---3---3-2---3---3-2----2---2-2---2---2-2-----------------------|
G----2---2-----2---2------2---2-----2---2------------------------|
D--0---------0----------0---------0------------------------------|
A----------------------------------------------------------------|
E----------------------------------------------------------------|
      I think about the time we wasted...

   Gmaj7        Gmaj7/E
E------2------------0---0----------------------------------------|
B---3-----3-3----3----33-3---------------------------------------|
G----0-----0------0----------------------------------------------|
D----------------------------------------------------------------|
A----------------------------------------------------------------|
E--3------------3------------------------------------------------|
       I told you not to cross the line...

   A       Asus4          A       Asus4
E--------------0----------------------0--------|
B----2-0---2----2-0--2------2-0---2----2-0--2--|
G-----2----------------------2-----------------|
D----------------------------------------------|
A--0-----0----0-----0-----0-----0----0-----0---|
E----------------------------------------------|
      The letters from your broken heart...

   Gmaj7        Gmaj7/E     Em7                 Asus4
E------2------------0---0------0---------0-----------------------|
B---3-----3-3----3----33-3---3---3-0---3---3-0---2-3--3-2--------|
G----0-----0------0-----------0---0-----0---0-----2----2---------|
D----------------------------------------------------------------|
A-----------------------------------------------0---0------------|
E--3------------3-----------0---------0--------------------------|
       Ooh, ooh. Don't tell me 'bout your lies...


(Instrumental):
   D         D/E       D/Db       A/D
E-----2---------0----------2---------0---------------------------|
B---3---3-2---3---3-2----2---2-2---2---2-2-----------------------|
G----2---2-----2---2------2---2-----2---2------------------------|
D--0---------0----------0---------0------------------------------|
A----------------------------------------------------------------|
E----------------------------------------------------------------|


2nd verse:

   D         D/E       D/Db       A/D
E-----2---------0----------2---------0---------------------------|
B---3---3-2---3---3-2----2---2-2---2---2-2-----------------------|
G----2---2-----2---2------2---2-----2---2------------------------|
D--0---------0----------0---------0------------------------------|
A----------------------------------------------------------------|
E----------------------------------------------------------------|
       Oh my love is easy...


End:

                  Bm7
Even though we've said it all
        Gmaj7                  Asus4 A
I would never let us fall with you
Em7   Em7/F#       Gmaj7      Asus4 A
Hang on to a little chance, you bet I'm in
             Bm
If it is for better...
Suggest correction
comments
print report bad tab
guest
You may want to rate the tab now too:
select rating
Please do not post tabs as comments. Select "correction" instead!