Oops, an error
Loading. Please wait.

Love For Granted tab

by Phoenix
10,582 views 6 this week
1 commentread comment
1 2 3 4 5
x 8
add to favorites
×
Save as Personal and add changes to this tab that will be seen only by you. Learn more ›
×
You can save this tab as Personal to edit and correct it or add notes. All changes will be seen only by you. Learn more »
launch autoscroll
font size
0
reset
how to read this tab
guitar tuner
edit
Autoscroll
slow
fast
+/-
esc
set tempo
stop
Phoenix - Love For Granted (album version)
Album: Alphabetical (2004)
Tabbed by: Marco Arduini (catcherintherye@katamail.com)
Tuning: standard

Intro (1x)/
1st verse (2x):

   Asus4            Asus4/Db
E----------------------------------------------------------------|
B---3--3--3--3--3-----2--2--2--2--2------------------------------|
G----2--2--2--2--2-----2--2--2--2--2-----------------------------|
D--0--0--0--0--0--0-0---0--0--0--0--0----------------------------|
A----------------------------------------------------------------|
E----------------------------------------------------------------|
       Oh these days are gone...

   Gmaj7        Gmaj7/E
E------2------------0--------------------------------------------|
B---3-----3-3----3-----3-3---------------------------------------|
G----0-----0------0-----0----------------------------------------|
D----------------------------------------------------------------|
A----------------------------------------------------------------|
E--3------------3------------------------------------------------|
       It's getting late and I can't call...

   D         D/E       D/Db       A/D
E-----2---------0----------2---------0---------------------------|
B---3---3-2---3---3-2----2---2-2---2---2-2-----------------------|
G----2---2-----2---2------2---2-----2---2------------------------|
D--0---------0----------0---------0------------------------------|
A----------------------------------------------------------------|
E----------------------------------------------------------------|
      I think about the time we wasted...

   Gmaj7        Gmaj7/E
E------2------------0--------------------------------------------|
B---3-----3-3----3-----3-3---------------------------------------|
G----0-----0------0-----0----------------------------------------|
D----------------------------------------------------------------|
A----------------------------------------------------------------|
E--3------------3------------------------------------------------|
       I told you not to cross the line...

   A       Asus4          A       Asus4
E------3----0----------------------------------|
B----2---2-------2-----------------------------|
G-----2---2----2-------------------------------|
D----------------------------------------------|
A--0-------0---------repeat--------------------|
E----------------------------------------------|
      The letters from your broken heart...



   Gmaj7        Gmaj7/E     Em7                 Asus4
E------2------------0---0------0---------0-----------------------|
B---3-----3-3----3----33-3---3---3-0---3---3-0---2-3--3-2--------|
G----0-----0------0-----------0---0-----0---0-----2----2---------|
D----------------------------------------------------------------|
A-----------------------------------------------0---0------------|
E--3------------3-----------0---------0--------------------------|
       Ooh, ooh. Don't tell me 'bout your lies...


(Instrumental):
   D         D/E       D/Db       A/D
E-----2---------0----------2---------0---------------------------|
B---3---3-2---3---3-2----2---2-2---2---2-2-----------------------|
G----2---2-----2---2------2---2-----2---2------------------------|
D--0---------0----------0---------0------------------------------|
A----------------------------------------------------------------|
E----------------------------------------------------------------|


2nd verse:

   D         D/E       D/Db       A/D
E-----2---------0----------2---------0---------------------------|
B---3---3-2---3---3-2----2---2-2---2---2-2-----------------------|
G----2---2-----2---2------2---2-----2---2------------------------|
D--0---------0----------0---------0------------------------------|
A----------------------------------------------------------------|
E----------------------------------------------------------------|
       Oh my love is easy...


End:

                  Bm7
Even though we've said it all
        Gmaj7                  Asus4 A
I would never let us fall with you
Em7   Em7/F#       Gmaj7      Asus4 A
Hang on to a little chance, you bet I'm in
             Bm
If it is for better...

            
            
Suggest correction
Creating personal tab
Creating personal tab
You can edit any tab online and save it as your Personal.

You can edit, replace or remove any tab part or add personal notes – all changes will be seen only by you.

Personal tabs can be accessed anytime from any device, even offline.
Learn more »
comments
print report bad tab
1 comment total.
0 reply
chad_raine 12 Oct 26, 2016 08:40 PM

the letters from your broken heart line should be:

E------3----0----------------------------------|
B----2---2-------2-----------------------------|
G-----2---2----2-------------------------------|
D----------------------------------------------|
A--0-------0---------repeat--------------------|
E----------------------------------------------|
The letters from your broken heart...

guest
You may want to rate the tab now too:
select rating
Wanna post a correction for this tab? Suggest correction