Oops, an error
Loading. Please wait.

Love Is A Sunset Part 2 Tab

10,684 views 6 this week
2 commentsread comments
1 2 3 4 5
x 5
add to favorites
launch autoscroll
font size
0
reset
how to read this tab
guitar tuner
Autoscroll
slow
fast
+/-
esc
set tempo
stop
Help us to improve Ultimate-Guitar.com Take our survey!
×
Difficulty
Capo
novice
6th fret
CAPO 6th

Whole song is just A and E open fingering, the E is played almost fully, without the e 
it sounds a little better.

play the sequence A  A  E (let ring) then start lines. easy as you can get

it comes
a visible horizon
right where it starts and ends
oh, and then we start the end

it comes
a visible illusion
oh, where it starts and ends
love like a sunset

end riff

-----------------|-------------------------------------------------|
-----------------|-2-2-0-0----2-0----------------------------------|
-2-2-1-1---2-1---|---------1------1---repeat-----------------------|
---------2-----2-|-------------------------------------------------|
-----------------|-------------------------------------------------|
-----------------|-------------------------------------------------|
    x2                          fade out for rest of song

first tab. enjoy
Suggest correction
comments
print report bad tab
2 comments total.
0 reply
jfkjr 23 Jun 29, 2010 07:05 PM

nice! sounds good! thank you.

0 reply
commandoben 10 Jun 08, 2015 06:32 AM



end riff

-----------------|-------------------------------------------------|
-----------------|-2-2-0-0----2-0----------------------------------|
-2-2-1-1---2-1---|-2-2-1-1-1--2-1-1---repeat-----------------------|
---------2-----2-|---------2------2--------------------------------|
-----------------|-------------------------------------------------|
-----------------|-------------------------------------------------|
x2 x2

guest
You may want to rate the tab now too:
select rating
Wanna post a correction for this tab? Suggest correction