Oops, an error
Loading. Please wait.

One Time Too Many Tab

11,198 views 12 this week
2 commentsread comments
1 2 3 4 5
excellent!
x 4
add to favorites
launch autoscroll
font size
0
reset
how to read this tab
guitar tuner
Tab Pro tools
  • play this tab
  • loop segment
  • change instrument
  • show fretboard
  • metronome
Autoscroll
slow
fast
+/-
esc
set tempo
stop
Contributor
Difficulty
intermediate
-------------------------------------------------------------------------------
                             One Time Too Many - Phoenix
-------------------------------------------------------------------------------


Tuning: Standard
Capo on 4th Fret

This song is fantastic...

***Not to call out the maker of the other tab, but it's incorrect =[
The chord changes aren't right. I made this to correct them.
**At the end of each verse's first line, the switch from E to Esus4 is very quick but 
noticeable.
Same applies in, "There it goes your tears again, this is no fun." At the end of this 
the switches from the A chord to the E chord to just the 1 finger on the G string are fast 
well.
Hopefully this isn't confusing in writing. But if you practice a couple of times and 
to it carefully, it is correct.
*Verse numbers next to the their respective lines to not confuse anybody

Enjoy!


Intro             Aadd9/C#
                 
    A Aadd9 E A/C#     DM7  A
e|--x---x---0---x---x---2---x--------------------------------------------|
B|--2---2---0---2---2---2---2--------------------------------------------|
G|--2---4---1---2---4---2---2--------------------------------------------|
D|--2---2---2---2---2---0---2--------------------------------------------|
A|--0---0---2---4---4---x---0--------------------------------------------|
E|--x---x---0---x---x---x---x--------------------------------------------|

Verse
    A                     Aadd9         E Esus4    A/C#  Aadd9/C#
e|--x----------------------x-------------0-0--------x----x--------------|
B|--2----------------------2-------------0-0--------2----2--------------|
G|--2----------------------4-------------1-2--------2----4--------------|
D|--2----------------------2-------------2-2--------2----2--------------|
A|--0----------------------0-------------2-2--------4----4--------------|
E|--x----------------------x-------------0-0--------x----x--------------|
 1   Quiet please, turn it off, shut it down
 2   Always trying to fall asleep to make my way out
 
   DM7                 A                      A/C#  E7
e|--2------------------x-----------------------x----0-------------------|
B|--2------------------2-----------------------2----3-------------------|
G|--2------------------2-----------------------2----1-------------------|
D|--0------------------2-----------------------2----2-------------------|
A|--x------------------0-----------------------4----2-------------------|
E|--x------------------x-----------------------x----0-------------------|
    Slow down your tan, I'm gonna miss you a lot
   
   A/C#                     Aadd9/C#              DM7   A   E   
e|--x--------------------------x--------------------2---x---0---0-------|
B|--2--------------------------2--------------------2---2---0---0-------|
G|--2--------------------------4--------------------2---2---1---1-------|
D|--2--------------------------2--------------------0---2---2---0-------|
A|--4--------------------------4--------------------x---0---2---0-------|
E|--x--------------------------x--------------------x---x---0---0-------|
  1 There it goes your tears again, this is no fun
  2 There it goes, your main is down to the bottom
  3 There it goes, your ID's been stolen
             
   A/C#                   Aadd9/C#              E    A/C# Aadd9/C#
e|--x-------------------------x------------------0-----x----x----------|
B|--2-------------------------2------------------0-----2----2----------|
G|--2-------------------------4------------------1-----2----4----------|
D|--2-------------------------2------------------2-----2----2----------|
A|--4-------------------------4------------------2-----4----4----------|
E|--x-------------------------x------------------0-----x----x----------|
  1 There it goes your tears again, as you walk away
  2 There it goes your main is willing to cooperate
  3 They wave their hands goodbye as you walk away

    DM7                         A/C#                       E
e|---2---------------------------x--------------------0----0----------|
B|---2---------------------------2--------------------0----0----------|
G|---2---------------------------2--------------------1----1----------|
D|---0---------------------------2--------------------0----2----------|
A|---x---------------------------4--------------------0----2----------|
E|---x---------------------------x--------------------0----0----------|
    Then it's hard to tell what kind, they do look alike


Chorus
    E                             Bmin
e|--0------------------------------2--------------------------------|
B|--0------------------------------3--------------------------------|
G|--1------------------------------4--------------------------------|
D|--2------------------------------4--------------------------------|
A|--2------------------------------x--------------------------------|
E|--0------------------------------2--------------------------------|
    Oh no, that ain't what I said. Oh no that ain't what I said.

     E
e|---0-------------------------------------------------------------|
B|---0-------------------------------------------------------------|
G|---1-------------------------------------------------------------|
D|---2   Play around in this chord---------------------------------|
A|---2   for this part---------------------------------------------|
E|---0-------------------------------------------------------------|
    Guess I'd better find us a way out
    "One time too many," I said
    It's a long way to look alike
    That is why you say


************************************

| /   slide up
| \   slide down
| h   hammer-on
| p   pull-off
| ~   vibrato
| +   harmonic
| x   Mute note
| b   Bend
| pb  Pre-bend
| br  Bend release
| pbr Pre-bend release
| brb Bend release bend

************************************
comments
print report bad tab
2 comments total.
+1 reply
roster05 wrote on March 28 2010, 04:19 pm

alright dude you absolutely rock..great tabb..i know its alot of work but if you have anything for acoustic versions of 1901 or lisztomania then that would be wicked..

0 reply
kellog wrote on November 17 2013, 08:33 pm

I agree with Roster.

I want to post or [tab]
guest
You may want to rate the tab now too:
select rating
Please do not post tabs as comments. Select "correction" instead!