Oops, an error
Loading. Please wait.

Playground Love Tab

version 1
version 1

Whole song

Interactive

15,132 views 21 this week
no commentswrite comment
1 2 3 4 5
accurate
x 5
add to favorites
launch autoscroll
font size
0
reset
how to read this tab
guitar tuner
Autoscroll
slow
fast
+/-
esc
set tempo
stop
Help us to improve Ultimate-Guitar.com Take our survey!
×
Difficulty
Capo
novice
5th fret
Playground Love (Phoenix Version)

Capo on 5th fret

e|-----------2----------2-------2---------2---------0-------0-------0----0--|
B|---------3----------3-------3---------3---------2-------2-------2-----2---|
G|-------0----------0-------0---------0---------0-------0-------0------0----|
D|---------------2------------------2----------------2---------------2------|
A|--------------------------------------------------------------------------|
E|----0------------------0-------------------0----------------0-------------|


e|-----------2----------2-------2---------2---------0-------0---------------|
B|---------3----------3-------3---------3---------2-------2-----------------|
G|-------0----------0-------0---------0---------0-------0-------------------|
D|---------------2------------------2----------------2----------------------|
A|--------------------------------------------------------------------------|
E|----0------------------0-------------------0------------------------------|

             I'm a high school lover...
e|--------------------------------------------------------------------------|
B|---------------3------------0--------------3-----0-----3------------------|
G|-------------0--0---0-----2---2----------0---0-----0-----0---0------------|
D|-----------0------0-----1-------1------2-------2-----2-----2--------------|
A|----------------------2-----------2--2------------------------------------|
E|----2---3-----------------------------------------------------------------|

      and you're my favourite flavour
e|--------------------------------------------------------------------------|
B|-----------1-------------0--------------3-------------1-----2-----1-------|
G|---------0---0---0-----2---2----------0---0---0-----2---2-----0-----2---2-|
D|-------2-------2-----1-------1------2-------2-----2-------2-----2-----2---|
A|-----3-------------2-----------2--2-------------0-------------------------|
E|--------------------------------------------------------------------------|

      Time's no matter, I'm on fire...
e|--------------------------------------------------------------------------|
B|-----------1-------------1--------------1-------------1-------------------|
G|---------0---0---0-----2---2---0------0---0---0-----2---2---0-------------|
D|-------2-------2-----2-------2------2-------2-----2-------2---------------|
A|-----3-------------0--------------3-------------0-------------------------|
E|--------------------------------------------------------------------------|

       On this playground love....
e|------------------------------------------0-------------------------------|
B|-----------1-------------0--------------3---------------------------------|
G|---------0---0---0-----2---2---2------0-----------------------------------|
D|-------2-------2-----1-------1------4-------------------------------------|
A|-----3-------------2------------------------------------------------------|
E|----------------------------------0---------------------------------------|
Suggest correction
comments
print report bad tab
guest
You may want to rate the tab now too:
select rating
Please do not post tabs as comments. Select "correction" instead!