Oops, an error
Loading. Please wait.

Run Run Run tab

by Phoenix
79 views 1 this week
no commentswrite comment
1 2 3 4 5
3 more votes to show rating
add to favorites
×
Save as Personal and add changes to this tab that will be seen only by you. Learn more ›
×
You can save this tab as Personal to edit and correct it or add notes. All changes will be seen only by you. Learn more »
launch autoscroll
font size
0
reset
how to read this tab
guitar tuner
edit
Autoscroll
slow
fast
+/-
esc
set tempo
stop
The song is in 2/4 at 89 bpm and the 16th notes are swung just a bit. No matter how weird the chords seem, a
capo is not gonna help a bit!

[Pre-intro]
e|-----------------|-----------------|
B|-----------------|-----------------|
G|-----------------|-----------------|
D|-----------------|-----------------|
A|-3-3-3-3-3-3-3-3-|-3-3-3-3-3-3-3-3-|
E|-----------------|-----------------|

[Intro]
   Cm                A                 Gb                Eb
e|-------3---------|-------5---------|-------2---------|-----------------|
B|---4-------4---4-|---5-------5---5-|---2-------2---0-|-------8-------0-|
G|-----5-------5---|-----6-------6---|-----3-------3---|---8-------8-----|
D|-----------------|-7---------------|-4---------------|-----8-------8---|
A|-3---------------|-----------------|-----------------|-6---------------|
E|-----------------|-----------------|-----------------|-----------------|

   Cm                Am                Cm                Abmaj7
e|-------3---------|-------5---------|-------3---------|-------3---------|
B|---4-------4---4-|---5-------5---5-|---4-------4---4-|---4-------4---4-|
G|-----5-------5---|-5---5-------5---|-----5-------5---|-----5-------5---|
D|-----------------|-----------------|-----------------|-6---------------|
A|-3---------------|-----------------|-3---------------|-----------------|
E|-----------------|-----------------|-----------------|-----------------|

Repeat

[Verse]
   Eb                                  Gb6
e|-----------------|-----------------|-----2-----------|-------2---------|
B|-----8---------8-|-------8---------|---------------4-|-----------------|
G|-----------8-----|---8-------8-----|-----------3-----|---3-------3-----|
D|-------------8---|-----8-------8---|-4-----------4---|-----4-------4///|
A|-6---------------|-6---------------|-----------------|-----------------|
E|-----------------|-----------------|-----------------|-----------------|

   B                 Bsus4   B         Ab      Absus4    Ab
e|-----7-----------|---7-----7-------|-----4---------4-|---------4-------|
B|-----------7-----|-----------7---7-|-------4---4-----|---4-----4-------|
G|-------------8-8-|h9---9p8-----8---|---------5-6p5---|-----5---5-------|
D|/9-------9-------|-----------------|-6---------------|-----------------|
A|-----------------|-----------------|-----------------|-----------------|
E|-----------------|-----------------|-----------------|-----------------|

Repeat

[Chorus]
   Cm                Am7-5             Abmaj7
e|-----------------|-----------------|-----------------|-----------------|
B|-----------------|-----------------|-----------------|-----------------|
G|-----------------|-----------------|-----------------|-----------------|
D|-5-5-5-5-5-5-5-5-|-5-5-5-5-5-5-5-5-|-5-5-5-5-5-5-5-5-|-5-5-5-5-5-5-5-5-|
A|-----------------|-----------------|-----------------|-----------------|
E|-----------------|-----------------|-----------------|-----------------|

   Cm                Am7-5             Abmaj7
e|-----------------|-----------------|-----------------|-----------------|
B|-----------------|-----------------|-----------------|-----------------|
G|-5-5-5-5-5-5-5-5-|-5-5-5-5-5-5-5-5-|-5-5-5-5-5-5-5-5-|-5-5-5-5-5-5-5-5-|
D|-----------------|-----------------|-----------------|-----------------|
A|-----------------|-----------------|-----------------|-----------------|
E|-----------------|-----------------|-----------------|-----------------|

   Cm                Am7-5             Abmaj7
e|-------3---------|-------3---------|-------3---------|-------3---------|
B|---4-------4-----|---4-------4-----|---4-------4-----|---4-------4-----|
G|-----5-----------|-----5-----------|-----5-----------|-----5-----------|
D|-----------------|-----------------|-----------------|-----------------|
A|-3---------------|-0---------------|-----------------|-----------------|
E|-----------------|-----------------|-4---------------|-4---------------| (thumb)

   Cm                Am7-5             Abmaj7
e|-------3---------|-------5---------|-------3---------|-------3---------|
B|---4-------4-----|---5-------5-----|---4-------4-----|---4-------4-----|
G|-----5-----------|-----5-----------|-----5-----------|-----5-----------|
D|-----------------|-----------------|-----------------|-----------------|
A|-3---------------|-0---------------|-----------------|-----------------|
E|-----------------|-----------------|-4---------------|-4---------------|


***********************************
| /   Slide up
| /// Slow slide
| h   Hammer-on
| p   Pull-off
| x   Dead note
***********************************

            
            
Suggest correction
Creating personal tab
Creating personal tab
You can edit any tab online and save it as your Personal.

You can edit, replace or remove any tab part or add personal notes – all changes will be seen only by you.

Personal tabs can be accessed anytime from any device, even offline.
Learn more »
Give kudos to tab author, rate the tab!
1 2 3 4 5
comments
print report bad tab
guest
You may want to rate the tab now too:
select rating
Wanna post a correction for this tab? Suggest correction