Oops, an error
Loading. Please wait.

Too Young Tab

version 1
version 1

Whole song

Interactive

13,503 views 27 this week
6 commentsread comments
1 2 3 4 5
excellent!
x 10
add to favorites
launch autoscroll
font size
0
reset
how to read this tab
guitar tuner
Autoscroll
slow
fast
+/-
esc
set tempo
stop
Help us to improve Ultimate-Guitar.com Take our survey!
×
Difficulty
intermediate
-----------------------------------------------------------------------------
                             "Too Young" - Phoenix
-----------------------------------------------------------------------------
Tabbed by: Junky_man
Email:Junky_man@yahoo.com

Tuning:Standard

Note: One of the best songs I've heard, and pretty fun to play/jam to. I'd say this is 99% 

correct. Wrote this tab from my head and no guitar, so you have to hear the song for the 

correct timing.

  Intro 
  Guitar 1

   Am          G               F
e|-0~----------3~--------------1~-------------------------------------------|
B|-1~----------3~--------------1~-------------------------------------------|
G|-2~----------0~--------------2~-------------------------------------------|
D|-2~----------0~--------------3~-------------------------------------------|
A|-0~----------2~--------------3~-------------------------------------------|
E|-x~----------3~--------------1~-------------------------------------------|


  Guitar 2 
   
e|--------------------------------------------------------------------------|
B|--------------------------------------------------------------------------|
G|--------------------------------------------------------------------------|
D|-5-77-555-77-555-77--555-77--555-77--555-77-------------------------------|
A|--------------------------------------------------------------------------|
E|--------------------------------------------------------------------------|


  Verse - *hear the song to get the right timing for the strum
  Guitar 1 & 2

   CMaj7 CMaj7  CMaj7 CMaj7      Dm7   Dm7   Dm7   Dm7
e|--3------3------3-----3---------5-----5-----5-----5-----------------------|
B|--5------5------5-----5---------6-----6-----6-----6-----------------------|
G|--4------4------4-----4---------5-----5-----5-----5-----------------------|
D|--5------5------5-----5---------7-----7-----7-----7-----------------------|
A|--3------3------3-----3---------5-----5-----5-----5-----------------------|
E|--x------x------x-----x---------x-----x-----x-----x-----------------------|


   Em7    Em7    Em7   Dm7       Am7   Am7   Am7   Am7
e|--7------7------7-----5---------x-----x-----x-----x-----------------------|
B|--8------8------8-----6---------5-----5-----5-----5-----------------------|
G|--7------7------7-----5---------5-----5-----5-----5-----------------------|
D|--9------9------9-----7---------5-----5-----5-----5-----------------------|
A|--7------7------7-----5---------x-----x-----x-----x-----------------------|
E|--x------x------x-----x---------5-----5-----5-----5-----------------------|

   Dm7    Dm7    Dm7   Dm7       Em7   Em7   Em7   Dm7
e|--5------5------5-----5---------7-----7-----7-----5-----------------------|
B|--6------6------6-----6---------8-----8-----8-----6-----------------------|
G|--5------5------5-----5---------7-----7-----7-----5-----------------------|
D|--7------7------7-----7---------9-----9-----9-----7-----------------------|
A|--5------5------5-----5---------7-----7-----7-----5-----------------------|
E|--x------x------x-----x---------x-----x-----x-----x-----------------------|


   CMaj7 CMaj7  CMaj7 CMaj7      Em7   Em7   Em7   Em7
e|--3------3------3-----3---------7-----7-----7-----7-----------------------|
B|--5------5------5-----5---------8-----8-----8-----8-----------------------|
G|--4------4------4-----4---------7-----7-----7-----7-----------------------|
D|--5------5------5-----5---------9-----9-----9-----9-----------------------|
A|--3------3------3-----3---------7-----7-----7-----7-----------------------|
E|--x------x------x-----x---------x-----x-----x-----x-----------------------|


   Dm7    Dm7    Dm7   Dm7       Fmaj  Fmaj  Fmaj  Fmaj
e|--5------5------5-----5---------1-----1-----1-----1-----------------------|
B|--6------6------6-----6---------1-----1-----1-----1-----------------------|
G|--5------5------5-----5---------2-----2-----2-----2-----------------------|
D|--7------7------7-----7---------3-----3-----3-----3-----------------------|
A|--5------5------5-----5---------3-----3-----3-----3-----------------------|
E|--x------x------x-----x---------1-----1-----1-----1-----------------------|

  Chorus 
  Guitar 1

   Am          G               F
e|-0~----------3~--------------1~-------------------------------------------|
B|-1~----------3~--------------1~-------------------------------------------|
G|-2~----------0~--------------2~-------------------------------------------|
D|-2~----------0~--------------3~-------------------------------------------|
A|-0~----------2~--------------3~-------------------------------------------|
E|-x~----------3~--------------1~-------------------------------------------|

  Guitar 2 
   
e|--------------------------------------------------------------------------|
B|--------------------------------------------------------------------------|
G|--------------------------------------------------------------------------|
D|-5-77-555-77-555-77--555-77--555-77--555-77-------------------------------|
A|--------------------------------------------------------------------------|
E|--------------------------------------------------------------------------|

Repeat for verse 2 and 3 same as verse 1. That's all. Hope you enjoy it!

************************************

| /   slide up
| \   slide down
| h   hammer-on
| p   pull-off
| ~   vibrato
| +   harmonic
| x   Mute note
| b   Bend
| pb  Pre-bend
| br  Bend release
| pbr Pre-bend release
| brb Bend release bend

************************************
Suggest correction
What's this?
You can suggest a correction to this tab. Community and Mods will review your correction and vote to approve or reject it.
comments
print report bad tab
6 comments total. Showing first comments.
0 reply
Krienmineel 89 wrote on November 4 2010, 06:45 pm

Excellent tab!!

+1 reply
junky_man 40 wrote on February 8 2011, 03:01 am

Thanks man! appreciate the reply.

0 reply
cheapguitarist 51 wrote on April 1 2011, 03:25 pm

Great tab, thanks.

guest
You may want to rate the tab now too:
select rating
Please do not post tabs as comments. Select "correction" instead!