Oops, an error
Loading. Please wait.

En Mi tab

by Phono
16 views 1 this week
no commentswrite comment
1 2 3 4 5
3 more votes to show rating
add to favorites
×
Save as Personal and add changes to this tab that will be seen only by you. Learn more ›
×
You can save this tab as Personal to edit and correct it or add notes. All changes will be seen only by you. Learn more »
launch autoscroll
font size
0
reset
how to read this tab
guitar tuner
edit
Autoscroll
slow
fast
+/-
esc
set tempo
stop
(by Pablo Arredondo)

Me costó un poco diseñar el tab, no soy muy experto en el
tema pero salió rebueno, cualquier falla me avisan,
que lo disfruten!


     A/D         Dsus2
e---0-0-0-0--0-0--0--0-0--0--0-----|
B---2-2-2-2--3-3--2--2-2--3--2-----|
G---2-2-2-2--2-2--2--2-2--2--2-----|
D---0-0-0-0--0-0--0--0-0--0--0-----|
A---0-0-0-0--0-0--0--0-0--0--0-----|
E---0-0-0-0--0-0--0--0-0--0--0-----|


      A         Asus4
e---0-0-0-0--0-0--0-0-0--0--0------|
B---2-2-2-2--3-3--2-2-2--3--2------|
G---2-2-2-2--2-2--2-2-2--2--2------|
D---2-2-2-2--2-2--2-2-2--2--2------|
A---0-0-0-0--0-0--0-0-0--0--0------|
E---0-0-0-0--0-0--0-0-0--0--0------|


       Gbm7       C/A                  G
e---2-2-2-2--0-0-0--2-2--0-0---3-3-3-3-3-3-3-3-3-3-3-3-----|
B---1-1-1-1--1-1-1--1-1--1-1---3-3-3-3-3-3-3-3-3-3-3-3-----|
G---0-0-0-0--0-0-0--0-0--0-0---0-0-0-0-0-0-0-0-0-0-0-0-----|
D---2-2-2-2--2-2-2--2-2--2-2---0-0-0-0-0-0-0-0-0-0-0-0-----|
A---0-0-0-0--0-0-0--0-0--0-0---2-2-2-2-2-2-2-2-2-2-2-2-----|
E---0-0-0-0--0-0-0--0-0--0-0---3-3-3-3-3-3-3-3-3-3-3-3-----|

(El rasgueo anterior se toca como intro
y durante el estribillo, traten de jugar y sacarle
melodía con la guitarra)


Ayúdame a no odiarte
no consigo recuperarme.
Discúlpame si enloquezco
por suerte no te detesto.


CORO
FA#m   FA         LA
en mi ya no queda nada
FA#m   FA           LA
en mi no hay resignación
FA#m   FA            LA
en mi mis ojos piden algo
FA#m      FA5     SOL5
en mi...


Me hierve todo de impotencia
patética incoherencia.
No tengo orgullo, me detruyo
ya no vivo si no consigo.


CORO


SOLO: (X2)

e--------------------------------------------------------------|
B-------------------------2-2-2-3-2--3~~--5-5-5-5-5--7-7-7-----|
G--4-4-4-2-2-2-2-2-4-4-4---------------------------------------|
D--------------------------------------------------------------|
A--------------------------------------------------------------|
E--------------------------------------------------------------|

          ^ ^ ^
e-5-5-7-5-7-7-7-7-5---------------------------------------|
B---------------------7-7-7-5-5-5--7-5--7-7-7-5-5-5-5-5---|
G---------------------------------------------------------|
D---------------------------------------------------------|
A---------------------------------------------------------|
E---------------------------------------------------------|


e-----------------------|
B-----------------------|
G--7-7-7-6-6-6--7-6-----|
D-----------------------|
A-----------------------|
E-----------------------|

(el solo se repite las dos veces, mientras otra guitarra
toca de fondo el rasgueo del estribillo)


CORO


Final: FA5 - SOL5 - FA5 - SOL5


Acordes en estribillo:

  A/D     Dsus2      A      Asus4     Gbm7       C/A        G

e|-0-|   e|-0-|   e|-0-|   e|-0-|    e|-2-|     e|-0-|    e|-3-|
B|-2-|   B|-3-|   B|-2-|   B|-3-|    B|-1-|     B|-1-|    B|-3-|
G|-2-|   G|-2-|   G|-2-|   G|-2-|    G|-0-|     G|-0-|    G|-0-|
D|-0-|   D|-0-|   D|-2-|   D|-2-|    D|-2-|     D|-2-|    D|-0-|
A|-0-|   A|-0-|   A|-0-|   A|-0-|    A|-0-|     A|-0-|    A|-2-|
E|-X-|   E|-X-|   E|-0-|   E|-0-|    E|-0-|     E|-0-|    E|-3-|


Acordes usados en coro:

  F#m       F        A       F5       G5

e|-2-|   e|-1-|   e|-0-|   e|-X-|   e|-X-|
B|-2-|   B|-1-|   B|-2-|   B|-X-|   B|-X-|
G|-2-|   G|-2-|   G|-2-|   G|-X-|   G|-X-|
D|-4-|   D|-3-|   D|-2-|   D|-3-|   D|-5-|
A|-4-|   A|-3-|   A|-0-|   A|-3-|   A|-5-|
E|-2-|   E|-1-|   E|-0-|   E|-1-|   E|-3-|

            
            
Suggest correction
Creating personal tab
Creating personal tab
You can edit any tab online and save it as your Personal.

You can edit, replace or remove any tab part or add personal notes – all changes will be seen only by you.

Personal tabs can be accessed anytime from any device, even offline.
Learn more »
Give kudos to tab author, rate the tab!
1 2 3 4 5
comments
print report bad tab
guest
Wanna post a correction for this tab? Suggest correction