Oops, an error
Loading. Please wait.

Somehow tab

2,011 views 99 this week
no commentswrite comment
1 2 3 4 5
x 7
add to favorites
×
Save as Personal and add changes to this tab that will be seen only by you. Learn more ›
×
You can save this tab as Personal to edit and correct it or add notes. All changes will be seen only by you. Learn more »
launch autoscroll
font size
0
reset
how to read this tab
guitar tuner
edit
Autoscroll
slow
fast
+/-
esc
set tempo
stop
About this tab version
My version is different because is the only one on UG ,and i think that this song needs to have tabs on UG because the song is really nice. :). Was this info helpful? Yes No
Hey guys!
So i really love this song and i hadn't found any chords for this song , so i decided to make one.
I'm not so sure about tuning su you can play it on normal tuning or half step down.
Hope you'll enjoy! :)

[Verse 1]
  Living  by myself                  Paranoid  as  hell         There's nothing I can doooo
D#|---0----0----0------------------0-x----------------0----------------------------------------------|
A#|---5----5----5-------5----------5-x--7-------7-----5-------5--------------------------0-----0--0--|
F#|---5----5----5-----------5------5-x--7-------7-----5----------5-----------------------0-----0--0--|
C#|----------------------------------x---------------------------------------------------4-----4--4--|
G#|---5----4----3---3----------3---3-x--7-------6-----5---5----------5-------------------------------|
D#|----------------------------------x-------------------------------------------------3----3--------|

   Yesterday's tomorrow                      My dreams are never true
D#|---0----0----0----------------------------------------------------------------------------------|
A#|---5----5----5-------5--------------10--10------------------------7------7-------8--8-----------|
F#|---5----5----5-----------5-----------8---8------------------------7------7-------7--7-----------|
C#|------------------------------------------------------------------------------------------------|
G#|---5----4----3---3----------3----8-------8------------------------------------------------------|
D#|---------------------------------------------------------------7-----7-------6------6-----------|

  But somehow                     I keep on lovin' you
D#|-------0-------0----------0----0-----------------------------------|
A#|-------5-------5----------5----5------------------------0-----0--0-|
F#|-------5-------5----------5----5------------------------0-----0--0-|
C#|--------------------------------------------------------4-----4--4-|
G#|---------------------5---------5-----------------------------------|
D#|----5------5----------------------------------------3------3-------|

[Verse 2]
     Emotions are attatched      Cause something happened that          No one can help
D#|---0----0----0------------------0-x----------------0----------------------------------5-----5--5--|
A#|---5----5----5-------5----------5-x--7-------7-----5-------5--------------------------0-----0--0--|
F#|---5----5----5-----------5------5-x--7-------7-----5----------5-----------------------0-----0--0--|
C#|----------------------------------x---------------------------------------------------4-----4--4--|
G#|---5----4----3---3----------3---3-x--7-------6-----5---5----------5-------------------------------|
D#|----------------------------------x-------------------------------------------------3----3--------|

  I  broke out of my shell   just to find that  That I don't belong
D#|----------------------------------------------------------------5------5--5-|
A#|---8---------8-----8-------7-------6----------------------------0------0--0-|
F#|---9---------8-----7-------6-------5----------------------------0------0--0-|
C#|----------------------------------------------------------------4------4--4-|
G#|---8---------8-----7-------6-------5----------------------------------------|
D#|-------------------------------------------------------------3------3-------|

  I  broke out of my shell   just to find that I'm living  by myself                  Paranoid  as  hell
D#|--------------------------------------------------0----0----0----------------------x----------------0--|
A#|---8---------8-----8-------7-------6--------------5----5----5-------5-----------10-x--7-------7-----5--|
F#|---9---------8-----7-------6-------5--------------5----5----5-----------5--------8-x--7-------7-----5--|
C#|-----------------------------------------------------------------------------------x-------------------|
G#|---8---------8-----7-------6-------5--------------5----4----3---3----------3---8---x--7-------6-----5--|
D#|-----------------------------------------------------------------------------------x-------------------|

               There's nothing I can doooo
D#|---------------------------------------------|
A#|-------5--------------------------0-----0--0-|
F#|----------5-----------------------0-----0--0-|
C#|----------------------------------4-----4--4-|
G#|---5----------5------------------------------|
D#|--------------------------------3----3-------|

  But somehow                     I keep on lovin' you
D#|-------0-------0----------0----0-----------------------------------|
A#|-------5-------5----------5----5------------------------0-----0--0-|
F#|-------5-------5----------5----5------------------------0-----0--0-|
C#|--------------------------------------------------------4-----4--4-|
G#|---------------------5---------5-----------------------------------|
D#|----5------5----------------------------------------3------3-------|

(Instrumental part)
D#|--------|
A#|--5-5---|
F#|--5-5---|
C#|--------|
G#|--5-5---|
D#|--------|

I keep on lovin' you Oh oooh Oh oooh oooh  
D#|---------------------------------------|
A#|------------------8-----8-----6-----8--|
F#|------------------8-----7-----7-----7--|
C#|------------------8-----7-----7-----8--|
 (repeat until the end of the song, 4 or 5 times)
G#|---------------------------------6-----|
D#|---------------8-----7-----6-----------|

            
            
Suggest correction
Creating personal tab
Creating personal tab
You can edit any tab online and save it as your Personal.

You can edit, replace or remove any tab part or add personal notes – all changes will be seen only by you.

Personal tabs can be accessed anytime from any device, even offline.
Learn more »
comments
print report bad tab
guest
You may want to rate the tab now too:
select rating
Wanna post a correction for this tab? Suggest correction