Oops, an error
Loading. Please wait.

Saving Us A Riot tab

version 1
version 1

Whole song

  • Complete tab for all parts of song.

Interactive

by Phoria
5,818 views 66 this week
4 commentsread comments
1 2 3 4 5
x 15
add to favorites
×
Save as Personal and add changes to this tab that will be seen only by you. Learn more ›
×
You can save this tab as Personal to edit and correct it or add notes. All changes will be seen only by you. Learn more »
launch autoscroll
font size
0
reset
how to read this tab
guitar tuner
edit
Autoscroll
slow
fast
+/-
esc
set tempo
stop
About this tab version
Complete tab for all parts of song. Was this info helpful? Yes No
Tabbed by Charlotte Adams
charleysa@hotmail.co.uk

This beautiful song is only really made up of 2 separate sections/riffs, but divided here into intro, verse
and chorus because some parts are comprised of the same riff. All sections are played as swung quavers.


[Intro]

e|-----------0---------------0----------------------0----------------|
B|-----3---------------3-----------3----------2----------------------|
G|---0---0-------0-------0-------0---0------2---2-------2------------|
D|-----4-------4-----------4-------4----------2-------2--------------|
A|-2-------2-----------0-------0----------0-------0------------------|
E|-------------------------------------------------------------------|

e|-------0-----------0---------------0-----------0-----------0---------------|
B|-0-----------0---------------0-----------0-----------0-----------0---------|
G|---0-------0---0-------0-------2---/---4---4-------4---4-------4---4-------|
D|-----2-------2-------2-----------0-------0-------0-------0-------0---------|
A|---------------------------------------------------------------------------|
E|-0-------0-------0-----------2---/---3-------3-------3-------3-------------|

e|-----------0-----------0---------------|
B|-----0-----------0-----------0---------|
G|---4---4-------4---4-------4---4-------|
D|-----0-------0-------0-------0---------|
A|---------------------------------------|
E|-3-------3-------3-------3-------------|

(x2)


[Verse]

e|-----------0---------------0----------------------0----------------|
B|-----3---------------3-----------3----------2----------------------|
G|---0---0-------0-------0-------0---0------2---2-------2------------|
D|-----4-------4-----------4-------4----------2-------2--------------|
A|-2-------2-----------0-------0----------0-------0------------------|
E|-------------------------------------------------------------------|

e|-------0-----------0---------------0-----------0-----------0---------------|
B|-0-----------0---------------0-----------0-----------0-----------0---------|
G|---0-------0---0-------0-------2---/---4---4-------4---4-------4---4-------|
D|-----2-------2-------2-----------0-------0-------0-------0-------0---------|
A|---------------------------------------------------------------------------|
E|-0-------0-------0-----------2---/---3-------3-------3-------3-------------|

e|-----------0-----------0---------------|
B|-----0-----------0-----------0---------|
G|---4---4-------4---4-------4---4-------|
D|-----0-------0-------0-------0---------|
A|---------------------------------------|
E|-3-------3-------3-------3-------------|

(x4)



[Chorus]

e|-----------0-----------0---------------------------------------------------|
B|-----7-----------7-----------7---------------------------------------------|
G|---7---7-------7---7-------7---7-------------------------------------------|
D|-----0-------0-------0-------0---------------------------------------------|
A|---------------------------------------------------------------------------|
E|-7-------7-------7-------7-------------------------------------------------|

e|-----------0-----------0---------------------------------------------------|
B|-----3-----------3-----------3---------------------------------------------|
G|---4---4-------4---4-------4---4-------------------------------------------|
D|-----0-------0-------0-------0---------------------------------------------|
A|---------------------------------------------------------------------------|
E|-3-------3-------3-------3-------------------------------------------------|

(x3 - the third time, the second tab is played twice)



************************************

| /   Slide up

************************************
Suggest correction
Creating personal tab
Creating personal tab
You can edit any tab online and save it as your Personal.

You can edit, replace or remove any tab part or add personal notes – all changes will be seen only by you.

Personal tabs can be accessed anytime from any device, even offline.
Learn more »
comments
print report bad tab
4 comments total. Showing first comments.
+1 reply
hfab 10 Aug 17, 2016 04:34 PM

Almost perfect, i've been waiting for this tab for nearly 6 months! Thanks a lot for making this!

+1 reply
Bullorus 10 Aug 19, 2016 06:39 PM

Can I just tell you that I love you? Seriously, this has been a very emotional song for me since the day it came out, and now i can play it...

Thank you <3

+1 reply
bashirpartovi 42 Apr 19, 2017 02:06 AM

this is awesome!

guest
You may want to rate the tab now too:
select rating
Wanna post a correction for this tab? Suggest correction