Oops, an error
Loading. Please wait.

Itoy-Itoy Tab

19,921 views 123 this week
no commentswrite comment
1 2 3 4 5
excellent!
x 2
add to favorites
launch autoscroll
font size
0
reset
how to read this tab
guitar tuner
Tab Pro tools
  • play this tab
  • loop segment
  • change instrument
  • show fretboard
  • metronome
Autoscroll
slow
fast
+/-
esc
set tempo
stop
Contributor
Itoy-Itoy Tab by Phylum

Title     : Itoy-Itoy
Artist    : Phylum 
Tabbed by : Hemmingway Isaac Ceniza Moro (hemmingwayisaacmoro@yahoo.com.ph)
            0918-663-1278
            JOY_HEMMINGZ™

Note:
this this this song is all about love... and i dedicate to my baby joy!!!

Rate nyo po!


Fill in 1
e|------------------------------------------|
B|--------10--------10------8-------10------|
G|-----11--------11-------7-------9----(10)-|
D|--12--------11--------9------11-----------|
A|------------------------------------------|
E|------------------------------------------|


Fill in 2
e|----------------------------10---------12-|
B|--------10--------10------8---------10----|
G|-----11--------11-------7---------9-------|
D|--12--------11--------9--------11---------|
A|------------------------------------------|
E|------------------------------------------|


Fill in 3
e|-----------12-----------12-----------12---|
B|-----10-----------10-----------10---------|
G|--------11-----------11-----------11------|
D|--12-----------12-----------12------------|
A|------------------------------------------|
E|------------------------------------------|

e|-----------12-----------12-----------12---|
B|-----10-----------10-----------10---------|
G|--------11-----------11-----------11------|
D|--11-----------11-----------11------------|
A|------------------------------------------|
E|------------------------------------------|

e|--------10--------10--------10------------|
B|----8---------8---------8-----------------|
G|------7---------7---------7---------------|
D|--9---------9---------9-------------------|
A|------------------------------------------|
E|------------------------------------------|

e|----------12----------12----------12------|
B|-----10----------10----------10-----------|
G|--------9-----------9-----------9---------|
D|--11----------11----------11--------------|
A|------------------------------------------|
E|------------------------------------------|


Fill in 4
e|--------------------------------------------------|
B|--------10-----------10---------8---------10------|
G|-----11----11-----11----11----7---7-----9-----10--|
D|--12-----------11-----------9--------11-----------|
A|--------------------------------------------------|
E|--------------------------------------------------|




Intro: (fill in 1)D-F#m-G-Bm-A

                        G      Bm   A
e|--------------------------------------------|
B|--------10--------10------8-------10--------|
G|-----11--------11-------7-------9----(10)---|
D|--12--------11--------9------11-------------|
A|--------------------------------------------|
E|--------------------------------------------|

    D         F#m        G        Bm   A
e|----------------------------10---------12---|
B|--------10--------10------8---------10------|
G|-----11--------11-------7---------9---------|
D|--12--------11--------9--------11-----------|
A|--------------------------------------------|
E|--------------------------------------------|


Verse1:
D
sige la'g tapad
F#m
walay istoryahay
G
wala'y laing nabuhat
     Bm    -   A
sige la'g pasiplatay

(Fill in 1)
D
magsige og smile
F#m
bisag walay angay
G
problema karon
      Bm    -    A
wala gihapon ka say og...



chorus: (Fill in 3)twice

D   F#m        G
Hi..hi...bisag Hi
  B   -    A
Kalaay laay-laay
D   F#m        G
Hi..hi...bisag Hi
A (hold)
minatay


verse2: (Fill in 4)twice
D
dagko kaayog singot
F#m
mora gyu'g gipanuhot
G
wala mahimutang
       Bm    -    A
kay conscious sa sinul.oban
D                       F#m
wala gyu'y gamit ang gi inom nga tanduay
G
hangtod na lang karon
       Bm    -   A
wala gihapon ka say og..


(Repeat Chorus)


Bridge:
  G         A
    dili sayop ang ma amang
       G                    A
    sa atubangan sa imong gi kaibgan
   G                      A
    basta pagbantay nga di ka makit.an
      G
    sa mga barkada mo
        A (hold)          
    kay ikaw bugal-bugalan


(D-F#m-G-Bm-A) (Fill in 1 and 2)
hi...
hapit nang uwan
wala nay buwan...
hi...
hapit nang uwan

(Repeat Verse2)

Solo: Do Verse Chords

e|-------------------------------------------|
B|--------------------------15-14------------|
G|--12p11----------------11-------16-14------|
D|--------(14)-12--12-14---------------------|
A|-------------------------------------------|
E|-------------------------------------------|

e|-----------------------------------------------------|
B|-----------------------------------------------------|
G|-----------------------------------------------14----|
D|--------12----12-----------12--------12-14-16b----14-|
A|--12-14----14-----12-12-14-----12-14-----------------|
E|-----------------------------------------------------|

e|----------------------------------------------------|
B|--------------15-14---------------------15-14-------|
G|--------------------16\-----------------------16\---|
D|--------12-14---------------------12-14-------------|
A|--12-14---------------------12-14-------------------|
E|----------------------------------------------------|

e|--------------------------------------------------------------------|
B|--------------------------------------------------------------------|
G|-----------------------------------------------14-------------------|
D|--------12----12-----------12--------12-14-16b----14-12-14h16p14-12-|
A|--12-14----14-----12-12-14-----12-14--------------------------------|
E|--------------------------------------------------------------------|

(Repeat Intro) then end with D Chord

ENJOY!!! ^_^

Suggestions,questions?? send me a message in friendster at hemmingwayisaacmoro@yahoo.com.ph
you text/call me at 0918-663-1278..
comments
We did not receive enough feedback on this tab! Please rate:
print report bad tab
1 2 3 4 5
I want to post or [tab]
guest
You may want to rate the tab now too:
select rating
Please do not post tabs as comments. Select "correction" instead!