Oops, an error
Loading. Please wait.

Kahit Na Chords

54,458 views 135 this week
2 commentsread comments
1 2 3 4 5
x 4
add to favorites
launch autoscroll
font size
0
reset
transpose
0
reset
display chords
guitar tuner
Autoscroll
slow
fast
+/-
esc
set tempo
stop
Help us to improve Ultimate-Guitar.com Take our survey!
×
Band/Artist:Phylum
Song:Kahit Na



Intro:G-D-C-;2x

[Verse 1]
G     D         C
Napakahirap ang kalimutan ka
G       D        C
Nalulungkot at laging umaasa
G     D         C
Na maibalik ang pag-ibig na nawala
      Em     D          C                D
At kahit na ako sa puso mo’y kinalimutan na

[Verse2](same as verse)
Nakita ko ngayon ang kalagayan mo
Ibang-iba nung ako pa ang kasama mo
Sa kanyang tabi laging langit ang mundo mo
Pero patuloy umaasa sana balikan mo ako

[Chorus]
     G          D         C
Kahit na may kasama ka nang iba
      G              D         C
Ikaw parin ang nag-iisang mamahalin sa twina
      G       D         C
At kahit masakit ok lang aking sinta
      Em        D        C
Basta makita ka lang masaya

[Bridge]
Am          Bm            C
Hanggang ngayon umaasang darating ang panahon
Am        BmC           D
Na maibalik ang masaya nating kahapon

[Adlib]G-D-C-;3X Em-D-CD---;

[Guitar solo]
e|---------------------------------------------------------------1-0-8-7----------------|
B|----------------------------------------------8/10-1-0-8-7-5-----------8--1-0b8-------|
G|----------------------------------------7-9-7----------------7------------------9b7---|
D|------5-5--7/9-7-7-7-7/5-5-5/2-2-2-0-0-7----------------------------------------------|
A|--5/7--7-7----------------------------------------------------------------------------|
E|--------------------------------------------------------------------------------------|

e|-------------------------------------------10------------------15--15--15-18b~~~~|
B|-----------------------------8-8-8-8-10-10b--10b-88-8-8-8-13/15--15--15----------|
G|----------------------------9-9-9-9----------------9-9-9-------------------------|
D|-10/12-12-10-10-10/9-9-9/77------------------------------------------------------|
A|---------------------------------------------------------------------------------|
E|---------------------------------------------------------------------------------|

 G   D   C
Kahit na…
G   D   C      D
Kahit na…ahha aahh ahh

[Chorus]
     G          D         C
Kahit na may kasama ka nang iba
      G              D         C
Ikaw parin ang nag-iisang mamahalin sa twina
      G       D         C
At kahit masakit ok lang aking sinta
Em        D        C
Basta makita ka lang masaya

Em        D        C

Basta’t makita ka lang masaya

Basta’t makita ka lang masaya

Lahat tanggap ko na.



************************************

| b  Bend
| /  Slide up

************************************
Suggest correction
comments
print report bad tab
2 comments total.
0 reply
knrubz23 10 Jul 31, 2014 12:27 PM

Nice :)
nindut ang adlib

0 reply
Mykel021193 10 Dec 16, 2014 01:26 AM

tnx.. nice tab.. :)

guest
You may want to rate the tab now too:
select rating
Wanna post a correction for this tab? Suggest correction